  0
SECTION
  2
HEADER
  9
$ACADVER
  1
AC1009
  9
$INSBASE
 10
0
 20
0
 30
0
  9
$EXTMIN
 10
0
 20
0
  9
$EXTMAX
 10
594
 20
420
  9
$LIMMIN
 10
0
 20
0
  9
$LIMMAX
 10
594
 20
420
  9
$LTSCALE
 40
2
  0
ENDSEC
  0
SECTION
  2
TABLES
  0
TABLE
  2
LTYPE
 70
     9
  0
LTYPE
  2
CONTINUOUS
 70
    64
  3
実線
 72
    65
 73
     0
 40
0.0
  0
LTYPE
  2
DASHED1
 70
    64
  3
--  --  --  --  --  --  --  --  
 72
    65
 73
     2
 40
2.5
 49
1.25
 49
-1.25
  0
LTYPE
  2
DASHED2
 70
    64
  3
----    ----    ----    ----    
 72
    65
 73
     2
 40
5.0
 49
2.5
 49
-2.5
  0
LTYPE
  2
DASHED3
 70
    64
  3
------  ------  ------  ------  
 72
    65
 73
     2
 40
5.0
 49
3.75
 49
-1.25
  0
LTYPE
  2
CENTER1
 70
    64
  3
----- - ----- - ----- - ----- - 
 72
    65
 73
     4
 40
10.0
 49
6.25
 49
-1.25
 49
1.25
 49
-1.25
  0
LTYPE
  2
CENTER2
 70
    64
  3
----------  --  ----------  --  
 72
    65
 73
     4
 40
20.0
 49
12.5
 49
-2.5
 49
2.5
 49
-2.5
  0
LTYPE
  2
PHANTOM1
 70
    64
  3
--- - - --- - - --- - - --- - - 
 72
    65
 73
     6
 40
10.0
 49
3.25
 49
-1.25
 49
1.25
 49
-1.25
 49
1.25
 49
-1.25
  0
LTYPE
  2
PHANTOM2
 70
    64
  3
--------  -  -  --------  -  -  
 72
    65
 73
     6
 40
20.0
 49
10.0
 49
-2.5
 49
1.25
 49
-2.5
 49
1.25
 49
-2.5
  0
LTYPE
  2
DOT
 70
    64
  3
-   -   -   -   -   -   -   -   
 72
    65
 73
     2
 40
2.5
 49
0.625
 49
-1.875
  0
LTYPE
  2
DUMMY
 70
    64
  3
ダミー
 72
    65
 73
     0
 40
0.0
  0
LTYPE
  2
RAND1
 70
    64
  3
----- - ----- - ----- - ----- - 
 72
    65
 73
     4
 40
10.0
 49
6.25
 49
-1.25
 49
1.25
 49
-1.25
  0
LTYPE
  2
RAND2
 70
    64
  3
----------  --  ----------  --  
 72
    65
 73
     4
 40
20.0
 49
12.5
 49
-2.5
 49
2.5
 49
-2.5
  0
LTYPE
  2
RAND3
 70
    64
  3
--- - - --- - - --- - - --- - - 
 72
    65
 73
     6
 40
10.0
 49
3.25
 49
-1.25
 49
1.25
 49
-1.25
 49
1.25
 49
-1.25
  0
LTYPE
  2
RAND4
 70
    64
  3
--------  -  -  --------  -  -  
 72
    65
 73
     6
 40
20.0
 49
10.0
 49
-2.5
 49
1.25
 49
-2.5
 49
1.25
 49
-2.5
  0
LTYPE
  2
RAND5
 70
    64
  3
----- - ----- - ----- - ----- - 
 72
    65
 73
     4
 40
10.0
 49
6.25
 49
-1.25
 49
1.25
 49
-1.25
  0
LTYPE
  2
LONG1
 70
    64
  3
----------  --  ----------  --  
 72
    65
 73
     4
 40
20.0
 49
12.5
 49
-2.5
 49
2.5
 49
-2.5
  0
LTYPE
  2
LONG2
 70
    64
  3
--- - - --- - - --- - - --- - - 
 72
    65
 73
     6
 40
10.0
 49
3.25
 49
-1.25
 49
1.25
 49
-1.25
 49
1.25
 49
-1.25
  0
LTYPE
  2
LONG3
 70
    64
  3
--------  -  -  --------  -  -  
 72
    65
 73
     6
 40
20.0
 49
10.0
 49
-2.5
 49
1.25
 49
-2.5
 49
1.25
 49
-2.5
  0
LTYPE
  2
LONG4
 70
    64
  3
----- - ----- - ----- - ----- - 
 72
    65
 73
     4
 40
10.0
 49
6.25
 49
-1.25
 49
1.25
 49
-1.25
  0
LTYPE
  2
LONG5
 70
    64
  3
----------  --  ----------  --  
 72
    65
 73
     4
 40
20.0
 49
12.5
 49
-2.5
 49
2.5
 49
-2.5
  0
ENDTAB
  0
TABLE
  2
STYLE
  5
3
100
AcDbSymbolTable
 70
     1
  0
STYLE
  5
10
100
AcDbSymbolTableRecord
100
AcDbTextStyleTableRecord
  2
STANDARD
 70
     0
 40
0.0
 41
1.0
 50
0.0
 71
     0
 42
0.2
  3
txt
  4
bigfont.shx
  0
STYLE
  5
26
100
AcDbSymbolTableRecord
100
AcDbTextStyleTableRecord
  2
TATEGAKI
 70
    68
 40
0.0
 41
1.0
 50
0.0
 71
     0
 42
1.0
  3
txt
  4
bigfont.shx
  0
ENDTAB
  0
TABLE
  2
LAYER
 70
    2
  0
LAYER
  2
_0-0__
 70
   64
 62
    7
  6
CONTINUOUS
  0
LAYER
  2
ADD_LINE
 70
   64
 62
    7
  6
CONTINUOUS
  0
ENDTAB
  0
ENDSEC
  0
SECTION
  2
BLOCKS
  0
BLOCK
  2
-000-ADPLT
 70
   64
 10
0
 20
0
 30
0
  0
ENDBLK
  0
ENDSEC
  0
SECTION
  2
ENTITIES
  0
LINE
  8
_0-0__
  6
CONTINUOUS
 62
    4
 10
403.54701
 20
246.18473
 11
355.14616
 21
246.18473
  0
LINE
  8
_0-0__
  6
CONTINUOUS
 62
    1
 10
78.825454
 20
522.25922
 11
78.825454
 21
-53.740774
  0
LINE
  8
_0-0__
  6
CONTINUOUS
 62
    1
 10
78.825454
 20
-53.740774
 11
474.82539
 21
-53.740774
  0
LINE
  8
_0-0__
  6
CONTINUOUS
 62
    1
 10
474.82539
 20
-53.740774
 11
474.82539
 21
522.25922
  0
LINE
  8
_0-0__
  6
CONTINUOUS
 62
    1
 10
474.82539
 20
522.25922
 11
78.825454
 21
522.25922
  0
POINT
  8
_0-0__
 62
    7
 10
78.825454
 20
522.25922
  0
LINE
  8
_0-0__
  6
CONTINUOUS
 62
    7
 10
469.82539
 20
-48.740774
 11
469.82539
 21
517.25922
  0
LINE
  8
_0-0__
  6
CONTINUOUS
 62
    7
 10
469.82539
 20
517.25922
 11
83.825454
 21
517.25922
  0
LINE
  8
_0-0__
  6
CONTINUOUS
 62
    7
 10
83.825454
 20
517.25922
 11
83.825454
 21
-48.740774
  0
LINE
  8
_0-0__
  6
CONTINUOUS
 62
    7
 10
83.825454
 20
-48.740774
 11
469.82539
 21
-48.740774
  0
LINE
  8
_0-0__
  6
CONTINUOUS
 62
    7
 10
369.82539
 20
-33.740774
 11
369.82539
 21
-48.740774
  0
LINE
  8
_0-0__
  6
CONTINUOUS
 62
    7
 10
269.82545
 20
-33.740774
 11
469.82539
 21
-33.740774
  0
LINE
  8
_0-0__
  6
CONTINUOUS
 62
    7
 10
269.82545
 20
-18.740774
 11
469.82539
 21
-18.740774
  0
LINE
  8
_0-0__
  6
CONTINUOUS
 62
    7
 10
269.82545
 20
-18.740774
 11
269.82545
 21
-48.740774
  0
LINE
  8
_0-0__
  6
CONTINUOUS
 62
    7
 10
399.82539
 20
-18.740774
 11
399.82539
 21
-33.740774
  0
TEXT
  8
_0-0__
 62
    7
 10
347.73632
 20
-44.461614
 40
6
 41
1
 50
0
  1
（片引）
  0
TEXT
  8
_0-0__
 62
    7
 10
447.57639
 20
-44.278144
 40
6
 41
1
 50
0
  1
（両引）
  0
TEXT
  8
_0-0__
 62
    7
 10
285.78608
 20
-45.613344
 40
10
 41
1
 50
0
  1
DSS-230
  0
TEXT
  8
_0-0__
 62
    7
 10
385.94089
 20
-45.613344
 40
10
 41
1
 50
0
  1
DSD-230
  0
TEXT
  8
_0-0__
 62
    7
 10
275.07771
 20
-31.125534
 40
10
 41
1
 50
0
  1
ダブルスライドタイプ
  0
TEXT
  8
_0-0__
 62
    7
 10
405.39509
 20
-30.495634
 40
10
 41
1
 50
0
  1
ﾄﾞｱ厚28ｍｍ
  0
LINE
  8
_0-0__
  6
CONTINUOUS
 62
    5
 10
326.64615
 20
394.68467
 11
326.64615
 21
454.18472
  0
LINE
  8
_0-0__
  6
CONTINUOUS
 62
    5
 10
331.0679
 20
394.68467
 11
303.0679
 21
394.68467
  0
LINE
  8
_0-0__
  6
CONTINUOUS
 62
    5
 10
329.66794
 20
391.28466
 11
303.0679
 21
391.28464
  0
LINE
  8
_0-0__
  6
CONTINUOUS
 62
    5
 10
329.66794
 20
391.28464
 11
329.66794
 21
384.68467
  0
LINE
  8
_0-0__
  6
CONTINUOUS
 62
    5
 10
333.0679
 20
384.68467
 11
333.0679
 21
392.68467
  0
ARC
  8
_0-0__
  6
CONTINUOUS
 62
    5
 10
331.0679
 20
392.68467
 40
2
 50
359.99998
 51
90.00002
  0
LINE
  8
_0-0__
  6
CONTINUOUS
 62
    5
 10
303.0679
 20
394.68467
 11
303.0679
 21
391.28464
  0
LINE
  8
_0-0__
  6
CONTINUOUS
 62
    5
 10
335.14615
 20
384.68467
 11
301.14615
 21
384.68467
  0
LINE
  8
_0-0__
  6
CONTINUOUS
 62
    5
 10
335.14615
 20
380.18465
 11
301.14615
 21
380.18467
  0
LINE
  8
_0-0__
  6
CONTINUOUS
 62
    5
 10
335.14615
 20
380.18467
 11
335.14615
 21
384.68467
  0
LINE
  8
_0-0__
  6
CONTINUOUS
 62
    5
 10
301.14615
 20
380.18467
 11
301.14615
 21
384.68467
  0
LINE
  8
_0-0__
  6
CONTINUOUS
 62
    5
 10
266.14618
 20
311.18467
 11
266.1462
 21
259.1847
  0
LINE
  8
_0-0__
  6
CONTINUOUS
 62
    5
 10
249.14563
 20
282.68476
 11
241.14563
 21
282.68476
  0
LINE
  8
_0-0__
  6
CONTINUOUS
 62
    5
 10
241.14563
 20
282.68476
 11
237.64563
 21
283.68473
  0
LINE
  8
_0-0__
  6
CONTINUOUS
 62
    5
 10
237.64563
 20
283.68473
 11
237.64563
 21
311.68473
  0
LINE
  8
_0-0__
  6
CONTINUOUS
 62
    5
 10
237.64563
 20
311.68473
 11
241.14563
 21
312.68473
  0
LINE
  8
_0-0__
  6
CONTINUOUS
 62
    5
 10
241.14563
 20
312.68473
 11
249.14563
 21
312.68473
  0
LINE
  8
_0-0__
  6
CONTINUOUS
 62
    5
 10
249.14563
 20
312.68473
 11
252.64563
 21
311.68473
  0
LINE
  8
_0-0__
  6
CONTINUOUS
 62
    5
 10
252.64565
 20
283.68473
 11
249.14563
 21
282.68476
  0
LINE
  8
_0-0__
  6
CONTINUOUS
 62
    5
 10
295.14563
 20
342.68474
 11
287.14563
 21
342.68474
  0
LINE
  8
_0-0__
  6
CONTINUOUS
 62
    5
 10
287.14563
 20
342.68474
 11
283.64563
 21
343.68471
  0
LINE
  8
_0-0__
  6
CONTINUOUS
 62
    5
 10
283.64563
 20
343.68471
 11
283.64563
 21
371.68473
  0
LINE
  8
_0-0__
  6
CONTINUOUS
 62
    5
 10
283.64563
 20
371.68473
 11
287.14563
 21
372.68473
  0
LINE
  8
_0-0__
  6
CONTINUOUS
 62
    5
 10
287.14563
 20
372.68473
 11
295.14563
 21
372.68473
  0
LINE
  8
_0-0__
  6
CONTINUOUS
 62
    5
 10
295.14563
 20
372.68473
 11
298.64563
 21
371.68473
  0
LINE
  8
_0-0__
  6
CONTINUOUS
 62
    5
 10
298.64563
 20
343.68471
 11
295.14563
 21
342.68474
  0
LINE
  8
_0-0__
  6
CONTINUOUS
 62
    5
 10
273.14621
 20
261.18473
 11
312.14621
 21
261.1847
  0
LINE
  8
_0-0__
  6
CONTINUOUS
 62
    5
 10
246.64618
 20
459.18472
 11
239.14618
 21
459.18472
  0
LINE
  8
_0-0__
  6
CONTINUOUS
 62
    5
 10
321.64615
 20
459.18472
 11
246.64618
 21
459.18472
  0
ARC
  8
_0-0__
  6
CONTINUOUS
 62
    5
 10
321.64615
 20
454.18472
 40
5
 50
359.99998
 51
90.00002
  0
LINE
  8
_0-0__
  6
CONTINUOUS
 62
    5
 10
315.89615
 20
379.18474
 11
246.64618
 21
379.18473
  0
LINE
  8
_0-0__
  6
CONTINUOUS
 62
    5
 10
266.14621
 20
259.1847
 11
235.14621
 21
259.1847
  0
LINE
  8
_0-0__
  6
CONTINUOUS
 62
    5
 10
235.14621
 20
259.1847
 11
235.14621
 21
264.1847
  0
LINE
  8
_0-0__
  6
CONTINUOUS
 62
    5
 10
273.14621
 20
266.18473
 11
273.14621
 21
261.18467
  0
LINE
  8
_0-0__
  6
CONTINUOUS
 62
    5
 10
235.14617
 20
333.88473
 11
237.14617
 21
333.88473
  0
LINE
  8
_0-0__
  6
CONTINUOUS
 62
    5
 10
235.14617
 20
318.48472
 11
237.14617
 21
318.48472
  0
LINE
  8
_0-0__
  6
CONTINUOUS
 62
    5
 10
243.64617
 20
320.43468
 11
243.64617
 21
331.90526
  0
LINE
  8
_0-0__
  6
CONTINUOUS
 62
    5
 10
237.14617
 20
333.68473
 11
242.92447
 21
333.68473
  0
LINE
  8
_0-0__
  6
CONTINUOUS
 62
    5
 10
237.14617
 20
318.68473
 11
242.92449
 21
318.68473
  0
LINE
  8
_0-0__
  6
CONTINUOUS
 62
    5
 10
315.89615
 20
371.18468
 11
307.14618
 21
371.18468
  0
LINE
  8
_0-0__
  6
CONTINUOUS
 62
    5
 10
320.39615
 20
344.68467
 11
312.14621
 21
344.68467
  0
LINE
  8
_0-0__
  6
CONTINUOUS
 62
    5
 10
301.14563
 20
367.18473
 11
306.14563
 21
367.18473
  0
LINE
  8
_0-0__
  6
CONTINUOUS
 62
    5
 10
306.14563
 20
348.18473
 11
301.14563
 21
348.18473
  0
LINE
  8
_0-0__
  6
CONTINUOUS
 62
    5
 10
255.14563
 20
307.18473
 11
260.14563
 21
307.18473
  0
LINE
  8
_0-0__
  6
CONTINUOUS
 62
    5
 10
260.14565
 20
288.18473
 11
255.14565
 21
288.18473
  0
ARC
  8
_0-0__
  6
CONTINUOUS
 62
    5
 10
264.14618
 20
311.18467
 40
2
 50
359.99998
 51
90.00002
  0
LINE
  8
_0-0__
  6
CONTINUOUS
 62
    5
 10
239.14618
 20
395.88471
 11
241.14618
 21
395.88471
  0
LINE
  8
_0-0__
  6
CONTINUOUS
 62
    5
 10
239.14618
 20
380.48472
 11
241.14618
 21
380.48472
  0
LINE
  8
_0-0__
  6
CONTINUOUS
 62
    5
 10
247.64618
 20
382.43467
 11
247.64618
 21
393.90525
  0
LINE
  8
_0-0__
  6
CONTINUOUS
 62
    5
 10
241.14618
 20
395.68473
 11
246.92449
 21
395.68473
  0
LINE
  8
_0-0__
  6
CONTINUOUS
 62
    5
 10
241.14618
 20
380.68473
 11
246.9245
 21
380.68473
  0
LINE
  8
_0-0__
  6
CONTINUOUS
 62
    5
 10
246.64618
 20
380.68476
 11
246.64618
 21
379.18473
  0
LINE
  8
_0-0__
  6
CONTINUOUS
 62
    5
 10
329.14615
 20
351.93467
 11
329.14615
 21
363.40525
  0
LINE
  8
_0-0__
  6
CONTINUOUS
 62
    5
 10
322.64615
 20
365.18471
 11
328.42444
 21
365.18471
  0
LINE
  8
_0-0__
  6
CONTINUOUS
 62
    5
 10
322.64615
 20
350.18471
 11
328.42447
 21
350.18471
  0
LINE
  8
_0-0__
  6
CONTINUOUS
 62
    5
 10
235.14617
 20
322.18473
 11
218.14617
 21
322.18473
  0
LINE
  8
_0-0__
  6
CONTINUOUS
 62
    5
 10
235.14617
 20
330.18473
 11
218.14617
 21
330.18473
  0
LINE
  8
_0-0__
  6
CONTINUOUS
 62
    5
 10
217.14618
 20
384.18473
 11
239.1462
 21
384.18473
  0
LINE
  8
_0-0__
  6
CONTINUOUS
 62
    5
 10
217.14618
 20
392.18474
 11
239.1462
 21
392.18473
  0
LINE
  8
_0-0__
  6
CONTINUOUS
 62
    5
 10
217.14617
 20
329.18473
 11
217.14617
 21
323.18473
  0
LINE
  8
_0-0__
  6
CONTINUOUS
 62
    5
 10
216.14618
 20
385.18473
 11
216.14618
 21
391.18474
  0
LINE
  8
_0-0__
  6
CONTINUOUS
 62
    5
 10
216.14618
 20
391.18474
 11
217.14618
 21
392.18474
  0
LINE
  8
_0-0__
  6
CONTINUOUS
 62
    5
 10
217.14618
 20
384.18473
 11
216.14618
 21
385.18473
  0
LINE
  8
_0-0__
  6
CONTINUOUS
 62
    5
 10
217.14617
 20
329.18473
 11
218.14617
 21
330.18473
  0
LINE
  8
_0-0__
  6
CONTINUOUS
 62
    5
 10
218.14617
 20
322.18473
 11
217.14617
 21
323.18473
  0
LINE
  8
_0-0__
  6
CONTINUOUS
 62
    5
 10
266.1462
 20
311.18467
 11
266.14623
 21
298.18467
  0
LINE
  8
_0-0__
  6
CENTER2
 62
    5
 10
248.14621
 20
275.76638
 11
248.14621
 21
252.03179
  0
LINE
  8
_0-0__
  6
CONTINUOUS
 62
    5
 10
239.6462
 20
264.18473
 11
239.6462
 21
265.78477
  0
LINE
  8
_0-0__
  6
CONTINUOUS
 62
    5
 10
256.64622
 20
264.18473
 11
256.64622
 21
265.78477
  0
LINE
  8
_0-0__
  6
CONTINUOUS
 62
    5
 10
253.89626
 20
272.28477
 11
242.42568
 21
272.28477
  0
LINE
  8
_0-0__
  6
CONTINUOUS
 62
    5
 10
240.6462
 20
265.78477
 11
240.6462
 21
271.56306
  0
LINE
  8
_0-0__
  6
CONTINUOUS
 62
    5
 10
255.64622
 20
265.78477
 11
255.64622
 21
271.56309
  0
LINE
  8
_0-0__
  6
CENTER2
 62
    5
 10
281.14625
 20
271.71766
 11
281.14621
 21
249.23604
  0
LINE
  8
_0-0__
  6
CONTINUOUS
 62
    5
 10
272.64624
 20
266.18473
 11
272.64624
 21
267.78477
  0
LINE
  8
_0-0__
  6
CONTINUOUS
 62
    5
 10
289.64624
 20
266.18473
 11
289.64624
 21
267.78477
  0
LINE
  8
_0-0__
  6
CONTINUOUS
 62
    5
 10
286.8963
 20
274.28477
 11
275.42572
 21
274.28477
  0
LINE
  8
_0-0__
  6
CONTINUOUS
 62
    5
 10
273.64624
 20
267.78477
 11
273.64624
 21
273.56306
  0
LINE
  8
_0-0__
  6
CONTINUOUS
 62
    5
 10
288.64624
 20
267.78477
 11
288.64624
 21
273.56309
  0
LINE
  8
_0-0__
  6
CONTINUOUS
 62
    4
 10
150.33531
 20
246.18473
 11
150.33531
 21
326.18473
  0
LINE
  8
_0-0__
  6
CONTINUOUS
 62
    4
 10
150.33531
 20
246.18473
 11
148.7824
 21
251.98028
  0
LINE
  8
_0-0__
  6
CONTINUOUS
 62
    4
 10
150.33531
 20
246.18473
 11
151.88823
 21
251.98028
  0
LINE
  8
_0-0__
  6
CONTINUOUS
 62
    4
 10
150.33531
 20
326.18473
 11
148.7824
 21
320.38917
  0
LINE
  8
_0-0__
  6
CONTINUOUS
 62
    4
 10
150.33531
 20
326.18473
 11
151.88823
 21
320.38917
  0
LINE
  8
_0-0__
  6
CONTINUOUS
 62
    4
 10
144.33532
 20
246.18473
 11
164.1462
 21
246.18473
  0
LINE
  8
_0-0__
  6
CONTINUOUS
 62
    4
 10
144.33532
 20
326.18473
 11
211.14617
 21
326.18473
  0
TEXT
  8
_0-0__
 62
    7
 10
150.33531
 20
280.93473
 40
10
 41
1
 50
90
  1
80
  0
LINE
  8
_0-0__
  6
CONTINUOUS
 62
    4
 10
150.33531
 20
326.18473
 11
150.33531
 21
388.18474
  0
LINE
  8
_0-0__
  6
CONTINUOUS
 62
    4
 10
150.33531
 20
326.18473
 11
148.7824
 21
331.98028
  0
LINE
  8
_0-0__
  6
CONTINUOUS
 62
    4
 10
150.33531
 20
326.18473
 11
151.88823
 21
331.98028
  0
LINE
  8
_0-0__
  6
CONTINUOUS
 62
    4
 10
150.33531
 20
388.18474
 11
148.7824
 21
382.38918
  0
LINE
  8
_0-0__
  6
CONTINUOUS
 62
    4
 10
150.33531
 20
388.18474
 11
151.88823
 21
382.38918
  0
LINE
  8
_0-0__
  6
CONTINUOUS
 62
    4
 10
144.33532
 20
388.18474
 11
210.14618
 21
388.18474
  0
TEXT
  8
_0-0__
 62
    7
 10
150.33531
 20
351.93473
 40
10
 41
1
 50
90
  1
62
  0
LINE
  8
_0-0__
  6
CONTINUOUS
 62
    4
 10
229.1462
 20
439.90514
 11
326.64615
 21
439.90514
  0
LINE
  8
_0-0__
  6
CONTINUOUS
 62
    4
 10
229.1462
 20
439.90514
 11
234.94175
 21
441.45806
  0
LINE
  8
_0-0__
  6
CONTINUOUS
 62
    4
 10
229.1462
 20
439.90514
 11
234.94175
 21
438.35223
  0
LINE
  8
_0-0__
  6
CONTINUOUS
 62
    4
 10
326.64615
 20
439.90514
 11
320.8506
 21
441.45806
  0
LINE
  8
_0-0__
  6
CONTINUOUS
 62
    4
 10
326.64615
 20
439.90514
 11
320.8506
 21
438.35223
  0
TEXT
  8
_0-0__
 62
    7
 10
267.14617
 20
439.90514
 40
10
 41
1
 50
0
  1
97.5
  0
LINE
  8
_0-0__
  6
CONTINUOUS
 62
    4
 10
229.1462
 20
493.21375
 11
349.14616
 21
493.21375
  0
LINE
  8
_0-0__
  6
CONTINUOUS
 62
    4
 10
229.1462
 20
493.21375
 11
234.94175
 21
494.76666
  0
LINE
  8
_0-0__
  6
CONTINUOUS
 62
    4
 10
229.1462
 20
493.21375
 11
234.94175
 21
491.66083
  0
LINE
  8
_0-0__
  6
CONTINUOUS
 62
    4
 10
349.14616
 20
493.21375
 11
343.35066
 21
494.76666
  0
LINE
  8
_0-0__
  6
CONTINUOUS
 62
    4
 10
349.14616
 20
493.21375
 11
343.35066
 21
491.66083
  0
LINE
  8
_0-0__
  6
CONTINUOUS
 62
    4
 10
229.1462
 20
499.21375
 11
229.1462
 21
482.18472
  0
LINE
  8
_0-0__
  6
CONTINUOUS
 62
    4
 10
349.14616
 20
499.21375
 11
349.14616
 21
482.18472
  0
TEXT
  8
_0-0__
 62
    7
 10
281.1462
 20
493.21375
 40
10
 41
1
 50
0
  1
120
  0
TEXT
  8
_0-0__
 62
    7
 10
175.86286
 20
432.74911
 40
6
 41
0.65
 50
0
  1
FB6X50 P=350
  0
TEXT
  8
_0-0__
 62
    7
 10
174.24286
 20
423.73331
 40
6
 41
0.55
 50
0
  1
M8x1.25タップ（工場）
  0
LINE
  8
_0-0__
  6
CONTINUOUS
 62
    4
 10
229.1462
 20
217.66524
 11
219.1462
 21
217.66524
  0
LINE
  8
_0-0__
  6
CONTINUOUS
 62
    4
 10
234.14614
 20
217.66524
 11
262.14614
 21
217.66524
  0
LINE
  8
_0-0__
  6
CONTINUOUS
 62
    4
 10
229.1462
 20
217.66524
 11
234.14614
 21
217.66524
  0
LINE
  8
_0-0__
  6
CONTINUOUS
 62
    4
 10
229.1462
 20
217.66524
 11
223.35064
 21
216.11232
  0
LINE
  8
_0-0__
  6
CONTINUOUS
 62
    4
 10
229.1462
 20
217.66524
 11
223.35064
 21
219.21815
  0
LINE
  8
_0-0__
  6
CONTINUOUS
 62
    4
 10
234.14614
 20
217.66524
 11
239.94169
 21
216.11232
  0
LINE
  8
_0-0__
  6
CONTINUOUS
 62
    4
 10
234.14614
 20
217.66524
 11
239.94169
 21
219.21815
  0
LINE
  8
_0-0__
  6
CONTINUOUS
 62
    4
 10
229.1462
 20
211.66524
 11
229.1462
 21
241.18473
  0
TEXT
  8
_0-0__
 62
    7
 10
229.14617
 20
217.66524
 40
10
 41
1
 50
0
  1
5
  0
LINE
  8
_0-0__
  6
CONTINUOUS
 62
    4
 10
262.14614
 20
217.66524
 11
256.35058
 21
219.21815
  0
LINE
  8
_0-0__
  6
CONTINUOUS
 62
    4
 10
262.14614
 20
217.66524
 11
256.35058
 21
216.11232
  0
TEXT
  8
_0-0__
 62
    7
 10
242.89614
 20
217.66524
 40
10
 41
1
 50
0
  1
28
  0
LINE
  8
_0-0__
  6
CONTINUOUS
 62
    4
 10
267.14613
 20
217.66524
 11
295.14613
 21
217.66524
  0
LINE
  8
_0-0__
  6
CONTINUOUS
 62
    4
 10
262.14614
 20
217.66524
 11
267.14613
 21
217.66524
  0
LINE
  8
_0-0__
  6
CONTINUOUS
 62
    4
 10
267.14613
 20
217.66524
 11
272.94169
 21
216.11232
  0
LINE
  8
_0-0__
  6
CONTINUOUS
 62
    4
 10
267.14613
 20
217.66524
 11
272.94169
 21
219.21815
  0
TEXT
  8
_0-0__
 62
    7
 10
262.14614
 20
217.66524
 40
10
 41
1
 50
0
  1
5
  0
LINE
  8
_0-0__
  6
CONTINUOUS
 62
    4
 10
295.14613
 20
217.66524
 11
289.35057
 21
219.21815
  0
LINE
  8
_0-0__
  6
CONTINUOUS
 62
    4
 10
295.14613
 20
217.66524
 11
289.35057
 21
216.11232
  0
TEXT
  8
_0-0__
 62
    7
 10
275.89613
 20
217.66524
 40
10
 41
1
 50
0
  1
28
  0
LINE
  8
_0-0__
  6
CONTINUOUS
 62
    4
 10
300.14618
 20
217.66524
 11
310.14618
 21
217.66524
  0
LINE
  8
_0-0__
  6
CONTINUOUS
 62
    4
 10
295.14613
 20
217.66524
 11
300.14618
 21
217.66524
  0
LINE
  8
_0-0__
  6
CONTINUOUS
 62
    4
 10
300.14618
 20
217.66524
 11
305.94174
 21
216.11232
  0
LINE
  8
_0-0__
  6
CONTINUOUS
 62
    4
 10
300.14618
 20
217.66524
 11
305.94174
 21
219.21815
  0
LINE
  8
_0-0__
  6
CONTINUOUS
 62
    4
 10
300.14618
 20
211.66524
 11
300.14618
 21
240.18476
  0
TEXT
  8
_0-0__
 62
    7
 10
295.14615
 20
217.66524
 40
10
 41
1
 50
0
  1
5
  0
LINE
  8
_0-0__
  6
CONTINUOUS
 62
    4
 10
229.1462
 20
3.7880421
 11
239.14607
 21
3.7880421
  0
LINE
  8
_0-0__
  6
CONTINUOUS
 62
    4
 10
229.1462
 20
-2.2119577
 11
229.1462
 21
18.817921
  0
LINE
  8
_0-0__
  6
CONTINUOUS
 62
    4
 10
239.14607
 20
-2.2119577
 11
239.14607
 21
23.817871
  0
TEXT
  8
_0-0__
 62
    7
 10
228.89613
 20
3.7880421
 40
10
 41
1
 50
0
  1
10
  0
LINE
  8
_0-0__
  6
CONTINUOUS
 62
    4
 10
239.14607
 20
3.7880421
 11
257.14607
 21
3.7880421
  0
LINE
  8
_0-0__
  6
CONTINUOUS
 62
    4
 10
239.14607
 20
3.7880421
 11
244.94162
 21
5.3409621
  0
LINE
  8
_0-0__
  6
CONTINUOUS
 62
    4
 10
239.14607
 20
3.7880421
 11
244.94162
 21
2.2351321
  0
LINE
  8
_0-0__
  6
CONTINUOUS
 62
    4
 10
257.14607
 20
3.7880421
 11
251.35051
 21
5.3409621
  0
LINE
  8
_0-0__
  6
CONTINUOUS
 62
    4
 10
257.14607
 20
3.7880421
 11
251.35051
 21
2.2351321
  0
LINE
  8
_0-0__
  6
CONTINUOUS
 62
    4
 10
257.14607
 20
-2.2119577
 11
257.14607
 21
23.817841
  0
TEXT
  8
_0-0__
 62
    7
 10
242.89607
 20
3.7880421
 40
10
 41
1
 50
0
  1
18
  0
LINE
  8
_0-0__
  6
CONTINUOUS
 62
    4
 10
257.14607
 20
3.7880421
 11
272.14607
 21
3.7880421
  0
LINE
  8
_0-0__
  6
CONTINUOUS
 62
    4
 10
257.14607
 20
3.7880421
 11
262.94162
 21
5.3409621
  0
LINE
  8
_0-0__
  6
CONTINUOUS
 62
    4
 10
257.14607
 20
3.7880421
 11
262.94162
 21
2.2351321
  0
LINE
  8
_0-0__
  6
CONTINUOUS
 62
    4
 10
272.14607
 20
3.7880421
 11
266.35051
 21
5.3409621
  0
LINE
  8
_0-0__
  6
CONTINUOUS
 62
    4
 10
272.14607
 20
3.7880421
 11
266.35051
 21
2.2351321
  0
LINE
  8
_0-0__
  6
CONTINUOUS
 62
    4
 10
272.14607
 20
-2.2119577
 11
272.14607
 21
23.817841
  0
TEXT
  8
_0-0__
 62
    7
 10
259.39607
 20
3.7880421
 40
10
 41
1
 50
0
  1
15
  0
LINE
  8
_0-0__
  6
CONTINUOUS
 62
    4
 10
272.14607
 20
3.7880421
 11
290.14607
 21
3.7880421
  0
LINE
  8
_0-0__
  6
CONTINUOUS
 62
    4
 10
272.14607
 20
3.7880421
 11
277.94162
 21
5.3409621
  0
LINE
  8
_0-0__
  6
CONTINUOUS
 62
    4
 10
272.14607
 20
3.7880421
 11
277.94162
 21
2.2351321
  0
LINE
  8
_0-0__
  6
CONTINUOUS
 62
    4
 10
290.14607
 20
3.7880421
 11
284.35051
 21
5.3409621
  0
LINE
  8
_0-0__
  6
CONTINUOUS
 62
    4
 10
290.14607
 20
3.7880421
 11
284.35051
 21
2.2351321
  0
LINE
  8
_0-0__
  6
CONTINUOUS
 62
    4
 10
290.14607
 20
-2.2119577
 11
290.14607
 21
23.817841
  0
TEXT
  8
_0-0__
 62
    7
 10
275.89607
 20
3.7880421
 40
10
 41
1
 50
0
  1
18
  0
LINE
  8
_0-0__
  6
CONTINUOUS
 62
    4
 10
290.14607
 20
3.7880421
 11
300.14607
 21
3.7880421
  0
LINE
  8
_0-0__
  6
CONTINUOUS
 62
    4
 10
300.14607
 20
-2.2119577
 11
300.14607
 21
35.817821
  0
TEXT
  8
_0-0__
 62
    7
 10
289.89607
 20
3.7880421
 40
10
 41
1
 50
0
  1
10
  0
LINE
  8
_0-0__
  6
CONTINUOUS
 62
    4
 10
229.1462
 20
3.7880421
 11
232.88125
 21
4.7888521
  0
LINE
  8
_0-0__
  6
CONTINUOUS
 62
    4
 10
229.1462
 20
3.7880421
 11
232.56019
 21
2.8732721
  0
LINE
  8
_0-0__
  6
CONTINUOUS
 62
    4
 10
239.14607
 20
3.7880421
 11
235.28489
 21
2.7534421
  0
LINE
  8
_0-0__
  6
CONTINUOUS
 62
    4
 10
239.14607
 20
3.7880421
 11
235.54875
 21
4.7519421
  0
LINE
  8
_0-0__
  6
CONTINUOUS
 62
    4
 10
290.14607
 20
3.7880421
 11
294.27768
 21
2.6809821
  0
LINE
  8
_0-0__
  6
CONTINUOUS
 62
    4
 10
290.14607
 20
3.7880421
 11
294.32907
 21
4.9088821
  0
LINE
  8
_0-0__
  6
CONTINUOUS
 62
    4
 10
300.14607
 20
3.7880421
 11
295.74782
 21
4.9665521
  0
LINE
  8
_0-0__
  6
CONTINUOUS
 62
    4
 10
300.14607
 20
3.7880421
 11
295.92528
 21
2.6570921
  0
LINE
  8
_0-0__
  6
CONTINUOUS
 62
    5
 10
264.14618
 20
313.18467
 11
261.14618
 21
313.18467
  0
LINE
  8
_0-0__
  6
CONTINUOUS
 62
    5
 10
320.39615
 20
365.38471
 11
322.64615
 21
365.38471
  0
LINE
  8
_0-0__
  6
CONTINUOUS
 62
    5
 10
320.39615
 20
349.98472
 11
322.64615
 21
349.98472
  0
LINE
  8
_0-0__
  6
CONTINUOUS
 62
    5
 10
301.14563
 20
351.68473
 11
298.64563
 21
351.68473
  0
LINE
  8
_0-0__
  6
CONTINUOUS
 62
    5
 10
301.14563
 20
363.68473
 11
298.64563
 21
363.68473
  0
LINE
  8
_0-0__
  6
CONTINUOUS
 62
    5
 10
307.14618
 20
363.68473
 11
306.14563
 21
363.68473
  0
LINE
  8
_0-0__
  6
CONTINUOUS
 62
    5
 10
307.14618
 20
351.68473
 11
306.14563
 21
351.68473
  0
LINE
  8
_0-0__
  6
CONTINUOUS
 62
    5
 10
298.64563
 20
371.68473
 11
298.64563
 21
363.68473
  0
LINE
  8
_0-0__
  6
CONTINUOUS
 62
    5
 10
301.14563
 20
363.68473
 11
301.14563
 21
367.18473
  0
LINE
  8
_0-0__
  6
CONTINUOUS
 62
    5
 10
298.64563
 20
351.68473
 11
298.64563
 21
343.38471
  0
LINE
  8
_0-0__
  6
CONTINUOUS
 62
    5
 10
301.14563
 20
348.18473
 11
301.14563
 21
351.68473
  0
LINE
  8
_0-0__
  6
CONTINUOUS
 62
    5
 10
306.14563
 20
351.68473
 11
306.14563
 21
348.18473
  0
LINE
  8
_0-0__
  6
CONTINUOUS
 62
    5
 10
306.14563
 20
367.18473
 11
306.14563
 21
363.68473
  0
LINE
  8
_0-0__
  6
CONTINUOUS
 62
    5
 10
307.14618
 20
371.18468
 11
307.14618
 21
363.68473
  0
LINE
  8
_0-0__
  6
CONTINUOUS
 62
    5
 10
315.89615
 20
380.18467
 11
315.89615
 21
371.18468
  0
LINE
  8
_0-0__
  6
CONTINUOUS
 62
    5
 10
320.39615
 20
380.18467
 11
320.39615
 21
365.38471
  0
LINE
  8
_0-0__
  6
CONTINUOUS
 62
    5
 10
322.64615
 20
365.38471
 11
322.64615
 21
365.18471
  0
LINE
  8
_0-0__
  6
CONTINUOUS
 62
    5
 10
322.64615
 20
350.18471
 11
322.64615
 21
349.98472
  0
LINE
  8
_0-0__
  6
CONTINUOUS
 62
    5
 10
320.39615
 20
349.98472
 11
320.39615
 21
344.68467
  0
LINE
  8
_0-0__
  6
CONTINUOUS
 62
    5
 10
312.14618
 20
344.68467
 11
312.14621
 21
261.18467
  0
LINE
  8
_0-0__
  6
CONTINUOUS
 62
    5
 10
307.14618
 20
351.68473
 11
307.14621
 21
266.1847
  0
ARC
  8
_0-0__
  6
CONTINUOUS
 62
    5
 10
326.66355
 20
363.43468
 40
2.482523
 50
359.32074
 51
44.82275
  0
ARC
  8
_0-0__
  6
CONTINUOUS
 62
    5
 10
326.66355
 20
351.93467
 40
2.482523
 50
315.17869
 51
0
  0
LINE
  8
_0-0__
  6
CONTINUOUS
 62
    5
 10
237.14617
 20
333.88473
 11
237.14617
 21
333.68473
  0
LINE
  8
_0-0__
  6
CONTINUOUS
 62
    5
 10
237.14617
 20
318.68473
 11
237.14617
 21
318.48472
  0
ARC
  8
_0-0__
  6
CONTINUOUS
 62
    5
 10
241.16359
 20
320.43468
 40
2.482523
 50
315.17869
 51
0
  0
ARC
  8
_0-0__
  6
CONTINUOUS
 62
    5
 10
241.16358
 20
331.9347
 40
2.482523
 50
359.32051
 51
44.82275
  0
LINE
  8
_0-0__
  6
CONTINUOUS
 62
    5
 10
255.14563
 20
303.68473
 11
252.64563
 21
303.68473
  0
LINE
  8
_0-0__
  6
CONTINUOUS
 62
    5
 10
255.14564
 20
291.68473
 11
252.64563
 21
291.68473
  0
LINE
  8
_0-0__
  6
CONTINUOUS
 62
    5
 10
261.14618
 20
303.68473
 11
260.14563
 21
303.68473
  0
LINE
  8
_0-0__
  6
CONTINUOUS
 62
    5
 10
261.14618
 20
291.68473
 11
260.14564
 21
291.68473
  0
LINE
  8
_0-0__
  6
CONTINUOUS
 62
    5
 10
252.64563
 20
311.68473
 11
252.64563
 21
303.68473
  0
LINE
  8
_0-0__
  6
CONTINUOUS
 62
    5
 10
255.14563
 20
303.68473
 11
255.14563
 21
307.18473
  0
LINE
  8
_0-0__
  6
CONTINUOUS
 62
    5
 10
260.14563
 20
307.18473
 11
260.14563
 21
303.68473
  0
LINE
  8
_0-0__
  6
CONTINUOUS
 62
    5
 10
261.14618
 20
313.18467
 11
261.14618
 21
303.68473
  0
LINE
  8
_0-0__
  6
CONTINUOUS
 62
    5
 10
261.14618
 20
291.68473
 11
261.1462
 21
264.1847
  0
LINE
  8
_0-0__
  6
CONTINUOUS
 62
    5
 10
260.14564
 20
291.68473
 11
260.14565
 21
288.18473
  0
LINE
  8
_0-0__
  6
CONTINUOUS
 62
    5
 10
255.14565
 20
288.18473
 11
255.14564
 21
291.68473
  0
LINE
  8
_0-0__
  6
CONTINUOUS
 62
    5
 10
252.64564
 20
291.68473
 11
252.64565
 21
283.68473
  0
LINE
  8
_0-0__
  6
CONTINUOUS
 62
    5
 10
239.14619
 20
395.88471
 11
239.14618
 21
459.18472
  0
LINE
  8
_0-0__
  6
CONTINUOUS
 62
    5
 10
239.1462
 20
379.21557
 11
239.14619
 21
380.48472
  0
LINE
  8
_0-0__
  6
CONTINUOUS
 62
    5
 10
241.14618
 20
395.88471
 11
241.14618
 21
395.68473
  0
ARC
  8
_0-0__
  6
CONTINUOUS
 62
    5
 10
245.16361
 20
382.43467
 40
2.482523
 50
315.17869
 51
0
  0
ARC
  8
_0-0__
  6
CONTINUOUS
 62
    5
 10
245.16359
 20
393.9347
 40
2.482523
 50
359.32028
 51
44.82275
  0
LINE
  8
_0-0__
  6
CONTINUOUS
 62
    4
 10
364.34916
 20
246.18473
 11
364.34916
 21
236.18473
  0
LINE
  8
_0-0__
  6
CONTINUOUS
 62
    4
 10
364.34916
 20
256.18473
 11
364.34916
 21
266.18473
  0
LINE
  8
_0-0__
  6
CONTINUOUS
 62
    4
 10
364.34916
 20
246.18473
 11
364.34916
 21
256.18473
  0
LINE
  8
_0-0__
  6
CONTINUOUS
 62
    4
 10
364.34916
 20
246.18473
 11
365.90206
 21
240.38918
  0
LINE
  8
_0-0__
  6
CONTINUOUS
 62
    4
 10
364.34916
 20
246.18473
 11
362.79626
 21
240.38918
  0
LINE
  8
_0-0__
  6
CONTINUOUS
 62
    4
 10
364.34916
 20
256.18473
 11
365.90206
 21
261.98028
  0
LINE
  8
_0-0__
  6
CONTINUOUS
 62
    4
 10
364.34916
 20
256.18473
 11
362.79626
 21
261.98028
  0
TEXT
  8
_0-0__
 62
    7
 10
364.12376
 20
245.06205
 40
10
 41
1
 50
90
  1
10
  0
LINE
  8
_0-0__
  6
CONTINUOUS
 62
    4
 10
396.39486
 20
51.817861
 11
396.39486
 21
246.18473
  0
LINE
  8
_0-0__
  6
CONTINUOUS
 62
    4
 10
396.39486
 20
51.817861
 11
394.84196
 21
57.613411
  0
LINE
  8
_0-0__
  6
CONTINUOUS
 62
    4
 10
396.39486
 20
51.817861
 11
397.94776
 21
57.613411
  0
LINE
  8
_0-0__
  6
CONTINUOUS
 62
    4
 10
396.39486
 20
246.18473
 11
394.84196
 21
240.38917
  0
LINE
  8
_0-0__
  6
CONTINUOUS
 62
    4
 10
396.39486
 20
246.18473
 11
397.94776
 21
240.38917
  0
LINE
  8
_0-0__
  6
CONTINUOUS
 62
    4
 10
402.39486
 20
51.817861
 11
388.82716
 21
51.817861
  0
LINE
  8
_0-0__
  6
CONTINUOUS
 62
    4
 10
396.39486
 20
246.18473
 11
396.39486
 21
476.18472
  0
LINE
  8
_0-0__
  6
CONTINUOUS
 62
    4
 10
396.39486
 20
246.18473
 11
394.84196
 21
251.98028
  0
LINE
  8
_0-0__
  6
CONTINUOUS
 62
    4
 10
396.39486
 20
246.18473
 11
397.94776
 21
251.98028
  0
LINE
  8
_0-0__
  6
CONTINUOUS
 62
    4
 10
396.39486
 20
476.18472
 11
394.84196
 21
470.38916
  0
LINE
  8
_0-0__
  6
CONTINUOUS
 62
    4
 10
396.39486
 20
476.18472
 11
397.94776
 21
470.38916
  0
TEXT
  8
_0-0__
 62
    7
 10
396.39486
 20
353.18473
 40
10
 41
1
 50
90
  1
230
  0
TEXT
  8
_0-0__
 62
    7
 10
396.02656
 20
146.36167
 40
10
 41
1
 50
90
  1
H
  0
LINE
  8
_0-0__
  6
CONTINUOUS
 62
    4
 10
381.82716
 20
61.817861
 11
381.82716
 21
256.18473
  0
LINE
  8
_0-0__
  6
CONTINUOUS
 62
    4
 10
381.82716
 20
51.817861
 11
381.82716
 21
61.817861
  0
LINE
  8
_0-0__
  6
CONTINUOUS
 62
    4
 10
381.82716
 20
51.817861
 11
383.38006
 21
46.022301
  0
LINE
  8
_0-0__
  6
CONTINUOUS
 62
    4
 10
381.82716
 20
61.817861
 11
383.38006
 21
67.613411
  0
LINE
  8
_0-0__
  6
CONTINUOUS
 62
    4
 10
381.82716
 20
256.18473
 11
383.38006
 21
250.38917
  0
TEXT
  8
_0-0__
 62
    7
 10
381.82716
 20
142.75129
 40
10
 41
1
 50
90
  1
DH
  0
LINE
  8
_0-0__
  6
CONTINUOUS
 62
    4
 10
381.82716
 20
61.817861
 11
380.27426
 21
67.613411
  0
LINE
  8
_0-0__
  6
CONTINUOUS
 62
    4
 10
381.82716
 20
51.817861
 11
381.82716
 21
41.817861
  0
LINE
  8
_0-0__
  6
CONTINUOUS
 62
    4
 10
381.82716
 20
51.817861
 11
380.27426
 21
46.022301
  0
LINE
  8
_0-0__
  6
CONTINUOUS
 62
    4
 10
381.82716
 20
256.18473
 11
380.27426
 21
250.38917
  0
LINE
  8
_0-0__
  6
CONTINUOUS
 62
    4
 10
393.42766
 20
51.817861
 11
327.1462
 21
51.817861
  0
LINE
  8
_0-0__
  6
CONTINUOUS
 62
    4
 10
402.39486
 20
61.817861
 11
325.1462
 21
61.817861
  0
TEXT
  8
_0-0__
 62
    7
 10
382.12686
 20
51.05845
 40
10
 41
1
 50
90
  1
10
  0
LINE
  8
_0-0__
  6
CONTINUOUS
 62
    4
 10
372.82716
 20
261.18467
 11
318.14621
 21
261.18467
  0
LINE
  8
_0-0__
  6
CONTINUOUS
 62
    4
 10
372.82716
 20
459.18472
 11
327.64615
 21
459.18472
  0
LINE
  8
_0-0__
  6
CONTINUOUS
 62
    4
 10
369.82806
 20
459.18472
 11
368.27516
 21
453.38916
  0
LINE
  8
_0-0__
  6
CONTINUOUS
 62
    4
 10
369.82806
 20
459.18472
 11
371.38106
 21
453.38916
  0
TEXT
  8
_0-0__
 62
    7
 10
369.82806
 20
352.1847
 40
10
 41
1
 50
90
  1
198
  0
LINE
  8
_0-0__
  6
CONTINUOUS
 62
    4
 10
369.82806
 20
261.18467
 11
369.82806
 21
459.18472
  0
LINE
  8
_0-0__
  6
CONTINUOUS
 62
    4
 10
369.82806
 20
261.18467
 11
368.27516
 21
266.98022
  0
LINE
  8
_0-0__
  6
CONTINUOUS
 62
    4
 10
369.82806
 20
261.18467
 11
371.38106
 21
266.98022
  0
ARC
  8
_0-0__
  6
CONTINUOUS
 62
    5
 10
275.39627
 20
271.80216
 40
2.482523
 50
89.320288
 51
134.82273
  0
ARC
  8
_0-0__
  6
CONTINUOUS
 62
    5
 10
286.8963
 20
271.80216
 40
2.482523
 50
45.17867
 51
90
  0
LINE
  8
_0-0__
  6
CONTINUOUS
 62
    5
 10
272.64624
 20
267.78477
 11
273.64624
 21
267.78477
  0
LINE
  8
_0-0__
  6
CONTINUOUS
 62
    5
 10
288.64624
 20
267.78477
 11
289.64624
 21
267.78477
  0
LINE
  8
_0-0__
  6
CONTINUOUS
 62
    5
 10
273.14621
 20
266.18473
 11
272.64624
 21
266.18473
  0
LINE
  8
_0-0__
  6
CONTINUOUS
 62
    5
 10
312.14621
 20
266.18467
 11
289.64624
 21
266.1847
  0
LINE
  8
_0-0__
  6
CONTINUOUS
 62
    5
 10
255.64622
 20
265.78477
 11
256.64622
 21
265.78477
  0
LINE
  8
_0-0__
  6
CONTINUOUS
 62
    5
 10
266.14621
 20
264.1847
 11
256.64622
 21
264.1847
  0
LINE
  8
_0-0__
  6
CONTINUOUS
 62
    5
 10
239.6462
 20
265.78477
 11
240.6462
 21
265.78477
  0
LINE
  8
_0-0__
  6
CONTINUOUS
 62
    5
 10
239.6462
 20
264.1847
 11
235.14621
 21
264.1847
  0
ARC
  8
_0-0__
  6
CONTINUOUS
 62
    5
 10
242.39623
 20
269.80216
 40
2.482523
 50
89.320288
 51
134.82273
  0
ARC
  8
_0-0__
  6
CONTINUOUS
 62
    5
 10
253.89626
 20
269.80216
 40
2.482523
 50
45.17867
 51
90
  0
LINE
  8
_0-0__
  6
CONTINUOUS
 62
    5
 10
241.14618
 20
380.68473
 11
241.14618
 21
380.48472
  0
LINE
  8
_0-0__
  6
CONTINUOUS
 62
    4
 10
392.39486
 20
256.18473
 11
317.86111
 21
256.18473
  0
LINE
  8
_0-0__
  6
CONTINUOUS
 62
    5
 10
277.14563
 20
376.18479
 11
291.146
 21
376.18479
  0
ARC
  8
_0-0__
  6
CONTINUOUS
 62
    5
 10
291.146
 20
374.68479
 40
1.5
 50
269.986
 51
90
  0
LINE
  8
_0-0__
  6
CONTINUOUS
 62
    5
 10
234.14618
 20
313.18476
 11
245.14562
 21
313.18476
  0
LINE
  8
_0-0__
  6
CONTINUOUS
 62
    5
 10
247.64563
 20
276.18473
 11
229.1462
 21
276.18473
  0
LINE
  8
_0-0__
  6
CONTINUOUS
 62
    5
 10
242.14563
 20
282.68473
 11
242.14563
 21
281.18473
  0
LINE
  8
_0-0__
  6
CONTINUOUS
 62
    5
 10
242.14563
 20
281.18473
 11
240.14563
 21
281.18473
  0
LINE
  8
_0-0__
  6
CONTINUOUS
 62
    5
 10
240.14563
 20
281.18473
 11
240.14563
 21
282.38471
  0
LINE
  8
_0-0__
  6
CONTINUOUS
 62
    5
 10
240.14563
 20
282.38471
 11
237.14563
 21
283.58472
  0
LINE
  8
_0-0__
  6
CONTINUOUS
 62
    5
 10
237.14563
 20
283.58472
 11
237.14563
 21
284.58472
  0
LINE
  8
_0-0__
  6
CONTINUOUS
 62
    5
 10
248.14563
 20
282.68473
 11
248.14563
 21
281.18473
  0
LINE
  8
_0-0__
  6
CONTINUOUS
 62
    5
 10
248.14563
 20
281.18473
 11
250.14565
 21
281.18473
  0
LINE
  8
_0-0__
  6
CONTINUOUS
 62
    5
 10
250.14565
 20
281.18473
 11
250.14565
 21
282.38471
  0
LINE
  8
_0-0__
  6
CONTINUOUS
 62
    5
 10
250.14565
 20
282.38471
 11
252.64565
 21
283.38471
  0
LINE
  8
_0-0__
  6
CONTINUOUS
 62
    5
 10
234.1462
 20
284.58472
 11
237.14563
 21
284.58472
  0
ARC
  8
_0-0__
  6
CONTINUOUS
 62
    5
 10
245.14562
 20
314.68476
 40
1.5
 50
270
 51
90.00002
  0
LINE
  8
_0-0__
  6
CONTINUOUS
 62
    5
 10
255.14565
 20
282.18473
 11
255.14565
 21
284.4347
  0
LINE
  8
_0-0__
  6
CONTINUOUS
 62
    5
 10
252.64565
 20
283.38471
 11
252.64565
 21
284.4347
  0
ARC
  8
_0-0__
  6
CONTINUOUS
 62
    5
 10
253.89565
 20
284.4347
 40
1.25
 50
359.99998
 51
180
  0
LINE
  8
_0-0__
  6
CONTINUOUS
 62
    5
 10
278.14563
 20
373.18476
 11
291.14563
 21
373.18476
  0
LINE
  8
_0-0__
  6
CONTINUOUS
 62
    5
 10
294.14563
 20
342.68473
 11
288.14563
 21
342.68473
  0
LINE
  8
_0-0__
  6
CONTINUOUS
 62
    5
 10
288.14563
 20
342.68473
 11
288.14563
 21
341.18473
  0
LINE
  8
_0-0__
  6
CONTINUOUS
 62
    5
 10
288.14563
 20
341.18473
 11
286.14563
 21
341.18473
  0
LINE
  8
_0-0__
  6
CONTINUOUS
 62
    5
 10
286.14563
 20
341.18473
 11
286.14563
 21
342.38471
  0
LINE
  8
_0-0__
  6
CONTINUOUS
 62
    5
 10
286.14563
 20
342.38471
 11
283.14563
 21
343.58472
  0
LINE
  8
_0-0__
  6
CONTINUOUS
 62
    5
 10
283.14563
 20
345.68473
 11
283.14563
 21
343.58472
  0
LINE
  8
_0-0__
  6
CONTINUOUS
 62
    5
 10
294.14563
 20
342.68473
 11
294.14563
 21
341.18473
  0
LINE
  8
_0-0__
  6
CONTINUOUS
 62
    5
 10
294.14563
 20
341.18473
 11
296.14563
 21
341.18473
  0
LINE
  8
_0-0__
  6
CONTINUOUS
 62
    5
 10
296.14563
 20
341.18473
 11
296.14563
 21
342.38471
  0
LINE
  8
_0-0__
  6
CONTINUOUS
 62
    5
 10
296.14563
 20
342.38471
 11
298.64563
 21
343.38471
  0
LINE
  8
_0-0__
  6
CONTINUOUS
 62
    5
 10
301.14563
 20
342.18473
 11
301.14563
 21
344.4347
  0
ARC
  8
_0-0__
  6
CONTINUOUS
 62
    5
 10
299.89563
 20
344.4347
 40
1.25
 50
359.99998
 51
180
  0
LINE
  8
_0-0__
  6
CONTINUOUS
 62
    5
 10
235.14617
 20
316.18476
 11
245.14562
 21
316.18476
  0
LINE
  8
_0-0__
  6
CONTINUOUS
 62
    5
 10
229.14618
 20
337.18473
 11
229.1462
 21
276.18473
  0
LINE
  8
_0-0__
  6
CONTINUOUS
 62
    5
 10
256.14617
 20
336.18473
 11
256.14617
 21
339.18473
  0
LINE
  8
_0-0__
  6
CONTINUOUS
 62
    5
 10
256.14617
 20
339.18473
 11
254.14617
 21
339.18473
  0
LINE
  8
_0-0__
  6
CONTINUOUS
 62
    5
 10
254.14617
 20
339.18473
 11
254.14617
 21
343.68473
  0
LINE
  8
_0-0__
  6
CONTINUOUS
 62
    5
 10
254.14617
 20
343.68473
 11
264.14618
 21
343.68473
  0
LINE
  8
_0-0__
  6
CONTINUOUS
 62
    5
 10
264.14618
 20
343.68473
 11
264.14618
 21
339.18473
  0
LINE
  8
_0-0__
  6
CONTINUOUS
 62
    5
 10
264.14618
 20
339.18473
 11
262.14618
 21
339.18473
  0
LINE
  8
_0-0__
  6
CONTINUOUS
 62
    5
 10
262.14618
 20
339.18473
 11
262.14618
 21
336.18473
  0
LINE
  8
_0-0__
  6
CONTINUOUS
 62
    5
 10
272.88669
 20
340.18473
 11
279.14618
 21
340.18473
  0
LINE
  8
_0-0__
  6
CONTINUOUS
 62
    5
 10
283.14563
 20
345.68473
 11
278.14563
 21
345.68473
  0
LINE
  8
_0-0__
  6
CONTINUOUS
 62
    5
 10
278.14563
 20
345.68473
 11
278.14563
 21
354.68473
  0
LINE
  8
_0-0__
  6
CONTINUOUS
 62
    5
 10
278.14563
 20
354.68473
 11
275.64563
 21
354.68473
  0
LINE
  8
_0-0__
  6
CONTINUOUS
 62
    5
 10
275.64563
 20
354.68473
 11
275.64563
 21
352.68473
  0
LINE
  8
_0-0__
  6
CONTINUOUS
 62
    5
 10
275.64563
 20
352.68473
 11
271.14563
 21
352.68473
  0
LINE
  8
_0-0__
  6
CONTINUOUS
 62
    5
 10
271.14563
 20
352.68473
 11
271.14563
 21
362.68473
  0
LINE
  8
_0-0__
  6
CONTINUOUS
 62
    5
 10
271.14563
 20
362.68473
 11
275.64563
 21
362.68473
  0
LINE
  8
_0-0__
  6
CONTINUOUS
 62
    5
 10
275.64563
 20
362.68473
 11
275.64563
 21
360.68473
  0
LINE
  8
_0-0__
  6
CONTINUOUS
 62
    5
 10
275.64563
 20
360.68473
 11
278.14563
 21
360.68473
  0
LINE
  8
_0-0__
  6
CONTINUOUS
 62
    5
 10
278.14563
 20
373.18473
 11
278.14563
 21
360.68473
  0
LINE
  8
_0-0__
  6
CONTINUOUS
 62
    5
 10
267.14563
 20
351.68473
 11
267.14563
 21
361.68473
  0
LINE
  8
_0-0__
  6
CONTINUOUS
 62
    5
 10
272.14563
 20
366.68473
 11
274.14563
 21
366.68473
  0
LINE
  8
_0-0__
  6
CONTINUOUS
 62
    5
 10
274.14563
 20
366.68473
 11
274.14563
 21
373.18479
  0
LINE
  8
_0-0__
  6
CONTINUOUS
 62
    5
 10
229.14618
 20
396.18473
 11
239.14618
 21
396.18473
  0
LINE
  8
_0-0__
  6
CONTINUOUS
 62
    5
 10
239.14618
 20
391.18473
 11
236.64618
 21
391.18473
  0
LINE
  8
_0-0__
  6
CONTINUOUS
 62
    5
 10
236.64618
 20
391.18473
 11
236.64618
 21
393.18473
  0
LINE
  8
_0-0__
  6
CONTINUOUS
 62
    5
 10
236.64618
 20
393.18473
 11
232.14618
 21
393.18473
  0
LINE
  8
_0-0__
  6
CONTINUOUS
 62
    5
 10
232.14618
 20
393.18473
 11
232.14618
 21
383.18473
  0
LINE
  8
_0-0__
  6
CONTINUOUS
 62
    5
 10
232.14618
 20
383.18473
 11
236.64618
 21
383.18473
  0
LINE
  8
_0-0__
  6
CONTINUOUS
 62
    5
 10
236.64618
 20
383.18473
 11
236.64618
 21
385.18473
  0
LINE
  8
_0-0__
  6
CONTINUOUS
 62
    5
 10
236.64618
 20
385.18473
 11
239.14618
 21
385.18473
  0
LINE
  8
_0-0__
  6
CONTINUOUS
 62
    5
 10
247.64618
 20
369.18473
 11
247.64618
 21
354.68473
  0
LINE
  8
_0-0__
  6
CONTINUOUS
 62
    5
 10
235.14618
 20
359.18473
 11
243.64618
 21
359.18473
  0
LINE
  8
_0-0__
  6
CONTINUOUS
 62
    5
 10
247.64618
 20
369.18473
 11
244.64618
 21
369.18473
  0
LINE
  8
_0-0__
  6
CONTINUOUS
 62
    5
 10
240.14618
 20
374.18473
 11
240.14618
 21
371.18473
  0
LINE
  8
_0-0__
  6
CONTINUOUS
 62
    5
 10
235.14618
 20
371.18473
 11
240.14618
 21
371.18473
  0
LINE
  8
_0-0__
  6
CONTINUOUS
 62
    5
 10
239.29727
 20
374.18473
 11
240.14618
 21
374.18473
  0
LINE
  8
_0-0__
  6
CONTINUOUS
 62
    5
 10
267.14615
 20
340.18473
 11
267.14615
 21
336.18473
  0
LINE
  8
_0-0__
  6
CONTINUOUS
 62
    5
 10
234.1462
 20
284.58472
 11
234.14618
 21
313.18476
  0
LINE
  8
_0-0__
  6
CONTINUOUS
 62
    5
 10
242.14563
 20
282.68473
 11
248.14563
 21
282.68473
  0
LINE
  8
_0-0__
  6
CONTINUOUS
 62
    5
 10
229.14618
 20
358.18473
 11
229.14618
 21
396.18473
  0
ARC
  8
_0-0__
  6
CONTINUOUS
 62
    5
 10
277.14563
 20
373.18479
 40
3
 50
89.99996
 51
180
  0
ARC
  8
_0-0__
  6
CONTINUOUS
 62
    5
 10
272.14563
 20
361.68473
 40
5
 50
90.00002
 51
180
  0
LINE
  8
_0-0__
  6
CONTINUOUS
 62
    5
 10
235.14618
 20
371.18473
 11
235.14618
 21
359.18473
  0
LINE
  8
_0-0__
  6
CONTINUOUS
 62
    5
 10
265.14563
 20
349.68473
 11
252.64618
 21
349.68473
  0
ARC
  8
_0-0__
  6
CONTINUOUS
 62
    5
 10
252.64618
 20
354.68473
 40
5
 50
180
 51
269.94268
  0
LINE
  8
_0-0__
  6
CONTINUOUS
 62
    5
 10
241.74893
 20
353.18473
 11
234.14618
 21
353.18473
  0
LINE
  8
_0-0__
  6
CONTINUOUS
 62
    5
 10
248.14617
 20
342.18476
 11
234.14618
 21
342.18473
  0
LINE
  8
_0-0__
  6
CONTINUOUS
 62
    5
 10
248.14617
 20
344.64731
 11
248.14617
 21
342.18476
  0
ARC
  8
_0-0__
  6
CONTINUOUS
 62
    5
 10
234.14618
 20
358.18473
 40
5
 50
180
 51
269.94268
  0
ARC
  8
_0-0__
  6
CONTINUOUS
 62
    5
 10
252.64618
 20
354.68473
 40
11
 50
187.83749
 51
245.85221
  0
ARC
  8
_0-0__
  6
CONTINUOUS
 62
    5
 10
236.64557
 20
378.22529
 40
0.5
 50
358.99719
 51
152.35347
  0
ARC
  8
_0-0__
  6
CONTINUOUS
 62
    5
 10
234.11463
 20
377.17695
 40
0.5
 50
72.0862
 51
228.71178
  0
ARC
  8
_0-0__
  6
CONTINUOUS
 62
    5
 10
234.11463
 20
374.92695
 40
0.5
 50
130.56434
 51
289.77814
  0
ARC
  8
_0-0__
  6
CONTINUOUS
 62
    5
 10
236.64557
 20
373.87861
 40
0.5
 50
207.41586
 51
7.73816
  0
ARC
  8
_0-0__
  6
CONTINUOUS
 62
    5
 10
236.04834
 20
376.07807
 40
2.25
 50
29.2344
 51
56.77786
  0
ARC
  8
_0-0__
  6
CONTINUOUS
 62
    5
 10
236.07483
 20
376.05024
 40
2.25
 50
93.10069
 51
132.23766
  0
ARC
  8
_0-0__
  6
CONTINUOUS
 62
    5
 10
236.08679
 20
376.07352
 40
2.25
 50
168.63973
 51
192.19918
  0
ARC
  8
_0-0__
  6
CONTINUOUS
 62
    5
 10
236.10785
 20
376.05442
 40
2.25
 50
227.50742
 51
266.12266
  0
ARC
  8
_0-0__
  6
CONTINUOUS
 62
    5
 10
236.14618
 20
376.18473
 40
2.25
 50
300.4448
 51
326.01212
  0
ARC
  8
_0-0__
  6
CONTINUOUS
 62
    5
 10
237.43828
 20
373.98633
 40
0.3
 50
120.44396
 51
187.73877
  0
ARC
  8
_0-0__
  6
CONTINUOUS
 62
    5
 10
235.93541
 20
373.51026
 40
0.3
 50
27.4148
 51
86.12115
  0
ARC
  8
_0-0__
  6
CONTINUOUS
 62
    5
 10
234.38533
 20
374.17414
 40
0.3
 50
47.50654
 51
109.77869
  0
ARC
  8
_0-0__
  6
CONTINUOUS
 62
    5
 10
233.59438
 20
375.53467
 40
0.3
 50
310.56627
 51
12.19894
  0
ARC
  8
_0-0__
  6
CONTINUOUS
 62
    5
 10
233.58675
 20
376.57581
 40
0.3
 50
348.63926
 51
48.71279
  0
ARC
  8
_0-0__
  6
CONTINUOUS
 62
    5
 10
234.3607
 20
377.93818
 40
0.3
 50
252.08433
 51
312.23762
  0
ARC
  8
_0-0__
  6
CONTINUOUS
 62
    5
 10
235.93691
 20
378.5965
 40
0.3
 50
273.09935
 51
332.35316
  0
ARC
  8
_0-0__
  6
CONTINUOUS
 62
    5
 10
237.44545
 20
378.21128
 40
0.3
 50
178.996
 51
236.77794
  0
LINE
  8
_0-0__
  6
CONTINUOUS
 62
    5
 10
239.29727
 20
374.18473
 11
238.0118
 21
374.92695
  0
LINE
  8
_0-0__
  6
CONTINUOUS
 62
    5
 10
269.40912
 20
340.18473
 11
267.14615
 21
340.18473
  0
LINE
  8
_0-0__
  6
CONTINUOUS
 62
    5
 10
269.41583
 20
340.19639
 11
270.02289
 21
341.24778
  0
LINE
  8
_0-0__
  6
CONTINUOUS
 62
    5
 10
272.87995
 20
340.19639
 11
272.27289
 21
341.24778
  0
ARC
  8
_0-0__
  6
CONTINUOUS
 62
    5
 10
273.32123
 20
342.61399
 40
0.5
 50
268.99719
 51
62.35341
  0
ARC
  8
_0-0__
  6
CONTINUOUS
 62
    5
 10
272.27289
 20
345.14493
 40
0.5
 50
342.08622
 51
138.71174
  0
ARC
  8
_0-0__
  6
CONTINUOUS
 62
    5
 10
270.02289
 20
345.14493
 40
0.5
 50
40.5643
 51
199.77816
  0
ARC
  8
_0-0__
  6
CONTINUOUS
 62
    5
 10
268.97455
 20
342.61399
 40
0.5
 50
117.41587
 51
277.73817
  0
ARC
  8
_0-0__
  6
CONTINUOUS
 62
    5
 10
271.17401
 20
343.21122
 40
2.25
 50
299.23448
 51
326.77788
  0
ARC
  8
_0-0__
  6
CONTINUOUS
 62
    5
 10
271.14618
 20
343.18473
 40
2.25
 50
3.100714
 51
42.23762
  0
ARC
  8
_0-0__
  6
CONTINUOUS
 62
    5
 10
271.16947
 20
343.17277
 40
2.25
 50
78.63975
 51
102.1992
  0
ARC
  8
_0-0__
  6
CONTINUOUS
 62
    5
 10
271.15036
 20
343.15171
 40
2.25
 50
137.50738
 51
176.12268
  0
ARC
  8
_0-0__
  6
CONTINUOUS
 62
    5
 10
271.28067
 20
343.11338
 40
2.25
 50
210.44474
 51
236.01212
  0
ARC
  8
_0-0__
  6
CONTINUOUS
 62
    5
 10
269.08228
 20
341.8213
 40
0.3
 50
30.44397
 51
97.73878
  0
ARC
  8
_0-0__
  6
CONTINUOUS
 62
    5
 10
268.6062
 20
343.32416
 40
0.3
 50
297.41488
 51
356.12122
  0
ARC
  8
_0-0__
  6
CONTINUOUS
 62
    5
 10
269.27008
 20
344.87424
 40
0.3
 50
317.50662
 51
19.77871
  0
ARC
  8
_0-0__
  6
CONTINUOUS
 62
    5
 10
270.63062
 20
345.6652
 40
0.3
 50
220.56621
 51
282.19899
  0
ARC
  8
_0-0__
  6
CONTINUOUS
 62
    5
 10
271.67175
 20
345.67283
 40
0.3
 50
258.6392
 51
318.71279
  0
ARC
  8
_0-0__
  6
CONTINUOUS
 62
    5
 10
273.03412
 20
344.89887
 40
0.3
 50
162.08435
 51
222.23759
  0
ARC
  8
_0-0__
  6
CONTINUOUS
 62
    5
 10
273.69245
 20
343.32267
 40
0.3
 50
183.0993
 51
242.35316
  0
ARC
  8
_0-0__
  6
CONTINUOUS
 62
    5
 10
273.30722
 20
341.81412
 40
0.3
 50
88.99602
 51
146.7779
  0
ARC
  8
_0-0__
  6
CONTINUOUS
 62
    5
 10
265.14563
 20
351.68473
 40
2
 50
270
 51
359.94268
  0
LINE
  8
_0-0__
  6
CONTINUOUS
 62
    5
 10
279.14618
 20
340.18473
 11
282.64563
 21
336.18473
  0
LINE
  8
_0-0__
  6
CONTINUOUS
 62
    5
 10
293.64563
 20
336.18473
 11
301.14563
 21
342.18473
  0
LINE
  8
_0-0__
  6
CONTINUOUS
 62
    5
 10
255.14565
 20
282.18473
 11
247.64565
 21
276.18473
  0
ARC
  8
_0-0__
  6
CONTINUOUS
 62
    5
 10
234.14618
 20
337.18473
 40
5
 50
90.00007
 51
180
  0
LINE
  8
_0-0__
  6
CONTINUOUS
 62
    5
 10
243.64618
 20
359.18473
 11
243.64618
 21
364.18473
  0
LINE
  8
_0-0__
  6
CONTINUOUS
 62
    5
 10
243.64618
 20
364.18473
 11
244.64618
 21
369.18473
  0
LINE
  8
_0-0__
  6
CONTINUOUS
 62
    5
 10
239.14618
 20
396.18473
 11
239.14618
 21
391.18473
  0
LINE
  8
_0-0__
  6
CONTINUOUS
 62
    5
 10
238.01177
 20
377.17695
 11
239.14618
 21
377.83193
  0
LINE
  8
_0-0__
  6
CONTINUOUS
 62
    5
 10
239.14618
 20
385.18473
 11
239.14618
 21
377.83193
  0
LINE
  8
_0-0__
  6
CONTINUOUS
 62
    5
 10
235.14617
 20
336.18473
 11
256.14617
 21
336.18473
  0
LINE
  8
_0-0__
  6
CONTINUOUS
 62
    5
 10
262.14618
 20
336.18473
 11
267.14615
 21
336.18473
  0
LINE
  8
_0-0__
  6
CONTINUOUS
 62
    5
 10
282.64563
 20
336.18473
 11
293.64563
 21
336.18473
  0
LINE
  8
_0-0__
  6
CONTINUOUS
 62
    5
 10
235.14617
 20
330.18473
 11
235.14617
 21
336.18473
  0
LINE
  8
_0-0__
  6
CONTINUOUS
 62
    5
 10
235.14617
 20
316.18473
 11
235.14617
 21
322.18473
  0
LINE
  8
_0-0__
  6
CONTINUOUS
 62
    3
 10
208.1462
 20
272.6847
 11
208.1462
 21
247.18473
  0
LINE
  8
_0-0__
  6
CONTINUOUS
 62
    3
 10
209.1462
 20
246.18473
 11
228.1462
 21
246.18473
  0
LINE
  8
_0-0__
  6
CONTINUOUS
 62
    3
 10
229.1462
 20
247.18473
 11
229.1462
 21
475.18472
  0
LINE
  8
_0-0__
  6
CONTINUOUS
 62
    3
 10
229.1462
 20
476.18472
 11
209.1462
 21
476.18472
  0
LINE
  8
_0-0__
  6
CONTINUOUS
 62
    3
 10
208.1462
 20
451.6847
 11
208.1462
 21
475.18472
  0
LINE
  8
_0-0__
  6
CONTINUOUS
 62
    3
 10
170.1462
 20
453.18472
 11
206.05269
 21
453.18472
  0
LINE
  8
_0-0__
  6
CONTINUOUS
 62
    3
 10
190.1462
 20
453.18472
 11
190.1462
 21
475.18472
  0
LINE
  8
_0-0__
  6
CONTINUOUS
 62
    3
 10
189.1462
 20
476.18472
 11
173.1462
 21
476.18472
  0
LINE
  8
_0-0__
  6
CONTINUOUS
 62
    3
 10
172.14621
 20
453.18472
 11
172.1462
 21
475.18472
  0
LINE
  8
_0-0__
  6
CONTINUOUS
 62
    3
 10
169.1462
 20
452.18472
 11
169.1462
 21
247.18473
  0
LINE
  8
_0-0__
  6
CONTINUOUS
 62
    3
 10
170.1462
 20
246.18473
 11
189.1462
 21
246.18473
  0
LINE
  8
_0-0__
  6
CONTINUOUS
 62
    3
 10
190.1462
 20
247.18473
 11
190.1462
 21
271.18473
  0
LINE
  8
_0-0__
  6
CONTINUOUS
 62
    3
 10
205.31632
 20
271.18473
 11
190.1462
 21
271.18473
  0
LINE
  8
_0-0__
  6
CONTINUOUS
 62
    3
 10
227.6462
 20
247.68473
 11
227.6462
 21
474.68472
  0
LINE
  8
_0-0__
  6
CONTINUOUS
 62
    3
 10
227.6462
 20
474.68472
 11
209.6462
 21
474.6847
  0
LINE
  8
_0-0__
  6
CONTINUOUS
 62
    3
 10
209.64618
 20
451.18472
 11
209.6462
 21
474.6847
  0
LINE
  8
_0-0__
  6
CONTINUOUS
 62
    3
 10
208.14618
 20
451.68474
 11
170.6462
 21
451.68472
  0
LINE
  8
_0-0__
  6
CONTINUOUS
 62
    3
 10
188.6462
 20
453.18472
 11
188.64618
 21
474.68472
  0
LINE
  8
_0-0__
  6
CONTINUOUS
 62
    3
 10
188.64618
 20
474.68472
 11
173.6462
 21
474.68472
  0
LINE
  8
_0-0__
  6
CONTINUOUS
 62
    3
 10
173.64621
 20
453.18472
 11
173.6462
 21
474.68472
  0
LINE
  8
_0-0__
  6
CONTINUOUS
 62
    3
 10
170.6462
 20
451.68472
 11
170.6462
 21
247.68473
  0
LINE
  8
_0-0__
  6
CONTINUOUS
 62
    3
 10
170.6462
 20
247.68473
 11
188.6462
 21
247.68473
  0
LINE
  8
_0-0__
  6
CONTINUOUS
 62
    3
 10
188.6462
 20
247.68473
 11
188.6462
 21
272.6847
  0
LINE
  8
_0-0__
  6
CONTINUOUS
 62
    3
 10
208.1462
 20
272.6847
 11
188.6462
 21
272.6847
  0
LINE
  8
_0-0__
  6
CONTINUOUS
 62
    3
 10
209.64618
 20
273.1847
 11
209.6462
 21
247.68473
  0
LINE
  8
_0-0__
  6
CONTINUOUS
 62
    3
 10
209.6462
 20
247.68473
 11
227.6462
 21
247.68473
  0
LINE
  8
_0-0__
  6
CONTINUOUS
 62
    3
 10
191.72319
 20
450.18472
 11
208.64618
 21
450.18472
  0
LINE
  8
_0-0__
  6
CONTINUOUS
 62
    3
 10
191.8667
 20
274.1847
 11
208.64618
 21
274.1847
  0
LINE
  8
_0-0__
  6
CONTINUOUS
 62
    3
 10
206.05269
 20
453.18472
 11
206.05269
 21
451.68474
  0
LINE
  8
_0-0__
  6
CONTINUOUS
 62
    3
 10
191.72319
 20
450.18472
 11
191.72319
 21
451.68472
  0
LINE
  8
_0-0__
  6
CONTINUOUS
 62
    3
 10
191.8667
 20
274.1847
 11
191.8667
 21
272.68467
  0
LINE
  8
_0-0__
  6
CONTINUOUS
 62
    3
 10
205.31632
 20
271.18473
 11
205.31632
 21
272.6847
  0
LINE
  8
_0-0__
  6
CONTINUOUS
 62
    3
 10
194.14618
 20
261.18473
 11
204.14617
 21
261.18473
  0
LINE
  8
_0-0__
  6
CONTINUOUS
 62
    3
 10
208.1462
 20
461.18472
 11
190.1462
 21
461.18472
  0
LINE
  8
_0-0__
  6
CONTINUOUS
 62
    3
 10
204.14617
 20
153.81785
 11
204.14617
 21
128.81788
  0
LINE
  8
_0-0__
  6
CONTINUOUS
 62
    3
 10
204.14617
 20
161.18473
 11
204.14617
 21
261.18473
  0
LINE
  8
_0-0__
  6
CONTINUOUS
 62
    3
 10
194.1462
 20
153.81785
 11
194.1462
 21
128.81791
  0
LINE
  8
_0-0__
  6
CONTINUOUS
 62
    3
 10
194.1462
 20
161.18473
 11
194.14618
 21
261.18473
  0
LINE
  8
_0-0__
  6
DASHED3
 62
    3
 10
221.6462
 20
258.40519
 11
221.64618
 21
461.87135
  0
LINE
  8
_0-0__
  6
CONTINUOUS
 62
    3
 10
221.6462
 20
258.40519
 11
227.6462
 21
258.40519
  0
LINE
  8
_0-0__
  6
CONTINUOUS
 62
    3
 10
221.64618
 20
461.87135
 11
227.64621
 21
461.87135
  0
LINE
  8
_0-0__
  6
CONTINUOUS
 62
    3
 10
228.1462
 20
476.18472
 11
349.14616
 21
476.18472
  0
LINE
  8
_0-0__
  6
CONTINUOUS
 62
    3
 10
349.14616
 20
476.18472
 11
349.14616
 21
246.18473
  0
LINE
  8
_0-0__
  6
CONTINUOUS
 62
    3
 10
229.1462
 20
474.68472
 11
347.64616
 21
474.68472
  0
LINE
  8
_0-0__
  6
CONTINUOUS
 62
    3
 10
347.64616
 20
474.68472
 11
347.64616
 21
247.68473
  0
ARC
  8
_0-0__
  6
CONTINUOUS
 62
    3
 10
173.1462
 20
475.18472
 40
1
 50
90.00002
 51
180
  0
ARC
  8
_0-0__
  6
CONTINUOUS
 62
    3
 10
189.1462
 20
475.18472
 40
1
 50
359.99998
 51
90.00002
  0
ARC
  8
_0-0__
  6
CONTINUOUS
 62
    3
 10
209.1462
 20
475.18472
 40
1
 50
90.00002
 51
180
  0
ARC
  8
_0-0__
  6
CONTINUOUS
 62
    3
 10
228.1462
 20
475.18472
 40
1
 50
359.99998
 51
90.00002
  0
ARC
  8
_0-0__
  6
CONTINUOUS
 62
    3
 10
208.64618
 20
451.18472
 40
1
 50
270
 51
359.99998
  0
ARC
  8
_0-0__
  6
CONTINUOUS
 62
    3
 10
170.1462
 20
452.18472
 40
1
 50
90.00002
 51
180
  0
ARC
  8
_0-0__
  6
CONTINUOUS
 62
    3
 10
228.1462
 20
247.18473
 40
1
 50
270
 51
359.99998
  0
ARC
  8
_0-0__
  6
CONTINUOUS
 62
    3
 10
209.1462
 20
247.18473
 40
1
 50
180
 51
270
  0
ARC
  8
_0-0__
  6
CONTINUOUS
 62
    3
 10
208.64618
 20
273.1847
 40
1
 50
0.000039
 51
90.00002
  0
ARC
  8
_0-0__
  6
CONTINUOUS
 62
    3
 10
189.1462
 20
247.18473
 40
1
 50
270
 51
359.99998
  0
ARC
  8
_0-0__
  6
CONTINUOUS
 62
    3
 10
170.1462
 20
247.18473
 40
1
 50
180
 51
270
  0
LINE
  8
_0-0__
  6
CONTINUOUS
 62
    3
 10
234.14621
 20
485.92482
 11
234.14621
 21
476.18473
  0
LINE
  8
_0-0__
  6
CONTINUOUS
 62
    3
 10
204.14618
 20
485.92482
 11
204.14618
 21
461.18472
  0
LINE
  8
_0-0__
  6
CONTINUOUS
 62
    3
 10
194.14621
 20
485.92482
 11
194.14621
 21
461.18472
  0
LINE
  8
_0-0__
  6
CONTINUOUS
 62
    3
 10
169.1462
 20
26.317921
 11
169.1462
 21
142.81794
  0
LINE
  8
_0-0__
  6
CONTINUOUS
 62
    3
 10
194.1462
 20
23.817921
 11
228.1462
 21
23.817921
  0
LINE
  8
_0-0__
  6
CONTINUOUS
 62
    3
 10
229.1462
 20
24.817921
 11
229.1462
 21
119.81791
  0
LINE
  8
_0-0__
  6
CONTINUOUS
 62
    3
 10
226.1462
 20
120.81794
 11
226.1462
 21
142.81794
  0
LINE
  8
_0-0__
  6
CONTINUOUS
 62
    3
 10
225.1462
 20
143.81794
 11
209.1462
 21
143.81794
  0
LINE
  8
_0-0__
  6
CONTINUOUS
 62
    3
 10
208.1462
 20
142.81794
 11
208.1462
 21
120.81794
  0
LINE
  8
_0-0__
  6
CONTINUOUS
 62
    3
 10
228.1462
 20
120.81791
 11
190.1462
 21
120.81794
  0
LINE
  8
_0-0__
  6
CONTINUOUS
 62
    3
 10
190.1462
 20
120.81794
 11
190.1462
 21
142.81794
  0
LINE
  8
_0-0__
  6
CONTINUOUS
 62
    3
 10
189.1462
 20
143.81794
 11
170.1462
 21
143.81794
  0
LINE
  8
_0-0__
  6
CONTINUOUS
 62
    3
 10
170.1462
 20
25.317921
 11
204.1462
 21
25.317921
  0
LINE
  8
_0-0__
  6
CONTINUOUS
 62
    3
 10
224.6462
 20
120.81794
 11
224.6462
 21
142.31791
  0
LINE
  8
_0-0__
  6
CONTINUOUS
 62
    3
 10
224.6462
 20
142.31791
 11
209.6462
 21
142.31791
  0
LINE
  8
_0-0__
  6
CONTINUOUS
 62
    3
 10
209.6462
 20
142.31791
 11
209.6462
 21
120.81794
  0
LINE
  8
_0-0__
  6
CONTINUOUS
 62
    3
 10
204.1462
 20
26.817921
 11
170.6462
 21
26.817921
  0
LINE
  8
_0-0__
  6
CONTINUOUS
 62
    3
 10
170.6462
 20
26.817921
 11
170.6462
 21
142.31794
  0
LINE
  8
_0-0__
  6
CONTINUOUS
 62
    3
 10
170.6462
 20
142.31794
 11
188.64623
 21
142.31791
  0
LINE
  8
_0-0__
  6
CONTINUOUS
 62
    3
 10
188.64623
 20
142.31791
 11
188.64623
 21
120.31791
  0
LINE
  8
_0-0__
  6
CONTINUOUS
 62
    3
 10
189.64623
 20
119.31791
 11
227.6462
 21
119.31794
  0
LINE
  8
_0-0__
  6
CONTINUOUS
 62
    3
 10
227.6462
 20
119.31794
 11
227.64623
 21
25.317921
  0
LINE
  8
_0-0__
  6
CONTINUOUS
 62
    3
 10
227.64623
 20
25.317921
 11
194.1462
 21
25.317921
  0
LINE
  8
_0-0__
  6
CONTINUOUS
 62
    3
 10
204.1462
 20
26.817921
 11
204.1462
 21
25.317921
  0
LINE
  8
_0-0__
  6
CONTINUOUS
 62
    3
 10
194.1462
 20
23.817921
 11
194.1462
 21
25.317921
  0
LINE
  8
_0-0__
  6
CONTINUOUS
 62
    3
 10
190.1462
 20
128.81794
 11
208.1462
 21
128.81791
  0
ARC
  8
_0-0__
  6
CONTINUOUS
 62
    3
 10
225.1462
 20
142.81794
 40
1
 50
359.99998
 51
90.00002
  0
ARC
  8
_0-0__
  6
CONTINUOUS
 62
    3
 10
209.1462
 20
142.81794
 40
1
 50
90.00002
 51
180
  0
ARC
  8
_0-0__
  6
CONTINUOUS
 62
    3
 10
189.64623
 20
120.31791
 40
1
 50
180
 51
270.00004
  0
ARC
  8
_0-0__
  6
CONTINUOUS
 62
    3
 10
228.1462
 20
119.81791
 40
1
 50
359.99998
 51
89.99996
  0
ARC
  8
_0-0__
  6
CONTINUOUS
 62
    3
 10
189.1462
 20
142.81794
 40
1
 50
359.99998
 51
90.00002
  0
ARC
  8
_0-0__
  6
CONTINUOUS
 62
    3
 10
170.1462
 20
142.81794
 40
1
 50
90.00002
 51
180
  0
ARC
  8
_0-0__
  6
CONTINUOUS
 62
    3
 10
170.1462
 20
26.317921
 40
1
 50
180
 51
269.99998
  0
LINE
  8
_0-0__
  6
CONTINUOUS
 62
    3
 10
229.1462
 20
454.68472
 11
230.6462
 21
454.68472
  0
LINE
  8
_0-0__
  6
CONTINUOUS
 62
    3
 10
258.1462
 20
473.18472
 11
258.1462
 21
474.68472
  0
LINE
  8
_0-0__
  6
CONTINUOUS
 62
    3
 10
230.6462
 20
454.68472
 11
230.6462
 21
473.18472
  0
LINE
  8
_0-0__
  6
CONTINUOUS
 62
    3
 10
230.6462
 20
473.18472
 11
258.1462
 21
473.18472
  0
LINE
  8
_0-0__
  6
CONTINUOUS
 62
    3
 10
251.22558
 20
481.18543
 11
251.22558
 21
465.13656
  0
LINE
  8
_0-0__
  6
CONTINUOUS
 62
    3
 10
249.22558
 20
474.68472
 11
249.22558
 21
469.68406
  0
LINE
  8
_0-0__
  6
CONTINUOUS
 62
    3
 10
253.22558
 20
474.68472
 11
253.22558
 21
469.68406
  0
LINE
  8
_0-0__
  6
CONTINUOUS
 62
    3
 10
249.82558
 20
469.08406
 11
252.62558
 21
469.08406
  0
LINE
  8
_0-0__
  6
CONTINUOUS
 62
    3
 10
249.22558
 20
469.68406
 11
249.82558
 21
469.08406
  0
LINE
  8
_0-0__
  6
CONTINUOUS
 62
    3
 10
252.62558
 20
469.08406
 11
253.22558
 21
469.68406
  0
LINE
  8
_0-0__
  6
CONTINUOUS
 62
    3
 10
248.02558
 20
476.18472
 11
249.22558
 21
474.68472
  0
LINE
  8
_0-0__
  6
CONTINUOUS
 62
    3
 10
253.22558
 20
474.68472
 11
254.42558
 21
476.18472
  0
ARC
  8
_0-0__
  6
CONTINUOUS
 62
    3
 10
230.7462
 20
473.08472
 40
1.6
 50
90
 51
180
  0
LINE
  8
_0-0__
  6
CONTINUOUS
 62
    3
 10
229.1462
 20
474.68472
 11
229.1462
 21
476.18472
  0
ARC
  8
_0-0__
  6
CONTINUOUS
 62
    3
 10
228.1462
 20
24.817921
 40
1
 50
270
 51
359.99998
  0
LINE
  8
_0-0__
  6
CONTINUOUS
 62
    3
 10
225.41756
 20
392.18474
 11
227.6462
 21
394.41338
  0
LINE
  8
_0-0__
  6
CONTINUOUS
 62
    3
 10
221.64619
 20
397.2522
 11
227.6462
 21
403.25221
  0
LINE
  8
_0-0__
  6
CONTINUOUS
 62
    3
 10
221.64619
 20
406.09104
 11
227.6462
 21
412.09105
  0
LINE
  8
_0-0__
  6
CONTINUOUS
 62
    3
 10
221.64618
 20
414.92987
 11
227.6462
 21
420.92988
  0
LINE
  8
_0-0__
  6
CONTINUOUS
 62
    3
 10
221.64618
 20
423.76871
 11
227.6462
 21
429.76872
  0
LINE
  8
_0-0__
  6
CONTINUOUS
 62
    3
 10
221.64618
 20
432.60753
 11
227.6462
 21
438.60754
  0
LINE
  8
_0-0__
  6
CONTINUOUS
 62
    3
 10
221.64618
 20
441.44636
 11
227.6462
 21
447.44638
  0
LINE
  8
_0-0__
  6
CONTINUOUS
 62
    3
 10
221.64618
 20
450.2852
 11
227.6462
 21
456.28521
  0
LINE
  8
_0-0__
  6
CONTINUOUS
 62
    3
 10
221.64618
 20
459.12403
 11
224.3935
 21
461.87135
  0
LINE
  8
_0-0__
  6
CONTINUOUS
 62
    3
 10
224.22053
 20
258.40519
 11
227.6462
 21
261.83086
  0
LINE
  8
_0-0__
  6
CONTINUOUS
 62
    3
 10
221.6462
 20
264.66969
 11
227.6462
 21
270.66969
  0
LINE
  8
_0-0__
  6
CONTINUOUS
 62
    3
 10
221.6462
 20
273.50853
 11
227.6462
 21
279.50853
  0
LINE
  8
_0-0__
  6
CONTINUOUS
 62
    3
 10
221.64619
 20
282.34736
 11
227.6462
 21
288.34736
  0
LINE
  8
_0-0__
  6
CONTINUOUS
 62
    3
 10
221.64619
 20
291.18619
 11
227.6462
 21
297.1862
  0
LINE
  8
_0-0__
  6
CONTINUOUS
 62
    3
 10
221.64619
 20
300.02503
 11
227.6462
 21
306.02503
  0
LINE
  8
_0-0__
  6
CONTINUOUS
 62
    3
 10
221.64619
 20
308.86386
 11
227.6462
 21
314.86387
  0
LINE
  8
_0-0__
  6
CONTINUOUS
 62
    3
 10
221.64619
 20
317.7027
 11
226.12822
 21
322.18473
  0
LINE
  8
_0-0__
  6
CONTINUOUS
 62
    3
 10
225.28939
 20
330.18473
 11
227.6462
 21
332.54154
  0
LINE
  8
_0-0__
  6
CONTINUOUS
 62
    3
 10
221.64619
 20
335.38036
 11
227.6462
 21
341.38037
  0
LINE
  8
_0-0__
  6
CONTINUOUS
 62
    3
 10
221.64619
 20
344.2192
 11
227.6462
 21
350.21921
  0
LINE
  8
_0-0__
  6
CONTINUOUS
 62
    3
 10
221.64619
 20
353.05803
 11
227.6462
 21
359.05804
  0
LINE
  8
_0-0__
  6
CONTINUOUS
 62
    3
 10
221.64619
 20
361.89687
 11
227.6462
 21
367.89688
  0
LINE
  8
_0-0__
  6
CONTINUOUS
 62
    3
 10
221.64619
 20
370.7357
 11
227.6462
 21
376.73571
  0
LINE
  8
_0-0__
  6
CONTINUOUS
 62
    3
 10
221.64619
 20
379.57454
 11
226.25638
 21
384.18473
  0
LINE
  8
_0-0__
  6
CONTINUOUS
 62
    3
 10
190.1462
 20
153.81785
 11
190.1462
 21
143.81794
  0
LINE
  8
_0-0__
  6
CONTINUOUS
 62
    3
 10
208.1462
 20
153.81785
 11
208.1462
 21
143.81794
  0
LINE
  8
_0-0__
  6
CONTINUOUS
 62
    3
 10
190.1462
 20
245.68473
 11
190.1462
 21
161.18473
  0
LINE
  8
_0-0__
  6
CONTINUOUS
 62
    3
 10
208.1462
 20
245.68473
 11
208.1462
 21
161.18473
  0
LINE
  8
_0-0__
  6
CONTINUOUS
 62
    3
 10
240.14607
 20
41.817861
 11
240.14607
 21
61.817861
  0
LINE
  8
_0-0__
  6
CONTINUOUS
 62
    3
 10
256.14607
 20
41.817861
 11
256.14607
 21
61.817861
  0
LINE
  8
_0-0__
  6
CONTINUOUS
 62
    3
 10
254.14605
 20
146.81788
 11
254.14605
 21
156.81788
  0
LINE
  8
_0-0__
  6
CONTINUOUS
 62
    3
 10
262.14605
 20
61.817891
 11
262.14605
 21
141.81788
  0
LINE
  8
_0-0__
  6
CONTINUOUS
 62
    3
 10
257.14605
 20
146.81788
 11
254.14605
 21
146.81788
  0
ARC
  8
_0-0__
  6
CONTINUOUS
 62
    3
 10
257.14605
 20
141.81788
 40
5
 50
359.99998
 51
90.00002
  0
LINE
  8
_0-0__
  6
CONTINUOUS
 62
    3
 10
242.14605
 20
146.81788
 11
242.14605
 21
156.81788
  0
LINE
  8
_0-0__
  6
CONTINUOUS
 62
    3
 10
234.14605
 20
61.817891
 11
234.14605
 21
141.81788
  0
LINE
  8
_0-0__
  6
CONTINUOUS
 62
    3
 10
239.14605
 20
146.81788
 11
242.14605
 21
146.81788
  0
ARC
  8
_0-0__
  6
CONTINUOUS
 62
    3
 10
239.14605
 20
141.81788
 40
5
 50
90.00002
 51
180
  0
LINE
  8
_0-0__
  6
CONTINUOUS
 62
    3
 10
262.14608
 20
61.817831
 11
234.14605
 21
61.817891
  0
LINE
  8
_0-0__
  6
CONTINUOUS
 62
    3
 10
254.14607
 20
171.18478
 11
254.14605
 21
161.18478
  0
LINE
  8
_0-0__
  6
CONTINUOUS
 62
    3
 10
262.1462
 20
256.18477
 11
262.14607
 21
176.18477
  0
LINE
  8
_0-0__
  6
CONTINUOUS
 62
    3
 10
257.14607
 20
171.18478
 11
254.14607
 21
171.18478
  0
ARC
  8
_0-0__
  6
CONTINUOUS
 62
    3
 10
257.14607
 20
176.18478
 40
5
 50
269.99989
 51
359.99993
  0
LINE
  8
_0-0__
  6
CONTINUOUS
 62
    3
 10
242.14607
 20
171.1848
 11
242.14605
 21
161.1848
  0
LINE
  8
_0-0__
  6
CONTINUOUS
 62
    3
 10
234.1462
 20
256.18481
 11
234.14607
 21
176.18481
  0
LINE
  8
_0-0__
  6
CONTINUOUS
 62
    3
 10
239.14607
 20
171.1848
 11
242.14607
 21
171.1848
  0
ARC
  8
_0-0__
  6
CONTINUOUS
 62
    3
 10
239.14607
 20
176.1848
 40
5
 50
179.99991
 51
269.99989
  0
LINE
  8
_0-0__
  6
CONTINUOUS
 62
    3
 10
262.14623
 20
256.18483
 11
234.1462
 21
256.18481
  0
LINE
  8
_0-0__
  6
CONTINUOUS
 62
    3
 10
273.14607
 20
41.817861
 11
273.14607
 21
61.817861
  0
LINE
  8
_0-0__
  6
CONTINUOUS
 62
    3
 10
289.14607
 20
41.817861
 11
289.14607
 21
61.817861
  0
LINE
  8
_0-0__
  6
CONTINUOUS
 62
    3
 10
287.14605
 20
146.81788
 11
287.14605
 21
156.81788
  0
LINE
  8
_0-0__
  6
CONTINUOUS
 62
    3
 10
295.14605
 20
61.817891
 11
295.14605
 21
141.81788
  0
LINE
  8
_0-0__
  6
CONTINUOUS
 62
    3
 10
290.14605
 20
146.81788
 11
287.14605
 21
146.81788
  0
ARC
  8
_0-0__
  6
CONTINUOUS
 62
    3
 10
290.14605
 20
141.81788
 40
5
 50
359.99998
 51
90.00002
  0
LINE
  8
_0-0__
  6
CONTINUOUS
 62
    3
 10
275.14605
 20
146.81788
 11
275.14605
 21
156.81788
  0
LINE
  8
_0-0__
  6
CONTINUOUS
 62
    3
 10
267.14605
 20
61.817891
 11
267.14605
 21
141.81788
  0
LINE
  8
_0-0__
  6
CONTINUOUS
 62
    3
 10
272.14605
 20
146.81788
 11
275.14605
 21
146.81788
  0
ARC
  8
_0-0__
  6
CONTINUOUS
 62
    3
 10
272.14605
 20
141.81788
 40
5
 50
90.00002
 51
180
  0
LINE
  8
_0-0__
  6
CONTINUOUS
 62
    3
 10
295.14608
 20
61.817831
 11
267.14605
 21
61.817891
  0
LINE
  8
_0-0__
  6
CONTINUOUS
 62
    3
 10
287.14607
 20
171.18473
 11
287.14605
 21
161.18473
  0
LINE
  8
_0-0__
  6
CONTINUOUS
 62
    3
 10
295.1462
 20
256.18472
 11
295.14607
 21
176.18472
  0
LINE
  8
_0-0__
  6
CONTINUOUS
 62
    3
 10
290.14607
 20
171.18472
 11
287.14607
 21
171.18473
  0
ARC
  8
_0-0__
  6
CONTINUOUS
 62
    3
 10
290.14607
 20
176.18472
 40
5
 50
269.99989
 51
359.99993
  0
LINE
  8
_0-0__
  6
CONTINUOUS
 62
    3
 10
275.14607
 20
171.18475
 11
275.14605
 21
161.18475
  0
LINE
  8
_0-0__
  6
CONTINUOUS
 62
    3
 10
267.1462
 20
256.18476
 11
267.14607
 21
176.18476
  0
LINE
  8
_0-0__
  6
CONTINUOUS
 62
    3
 10
272.14607
 20
171.18475
 11
275.14607
 21
171.18475
  0
ARC
  8
_0-0__
  6
CONTINUOUS
 62
    3
 10
272.14607
 20
176.18475
 40
5
 50
179.99991
 51
269.99989
  0
LINE
  8
_0-0__
  6
CONTINUOUS
 62
    3
 10
295.14623
 20
256.18478
 11
267.1462
 21
256.18476
  0
LINE
  8
_0-0__
  6
CENTER2
 62
    3
 10
248.14607
 20
68.404151
 11
248.14607
 21
20.947751
  0
LINE
  8
_0-0__
  6
CENTER2
 62
    3
 10
281.14607
 20
70.359891
 11
281.14607
 21
21.685201
  0
LINE
  8
_0-0__
  6
CONTINUOUS
 62
    3
 10
256.14607
 20
41.817861
 11
240.14607
 21
41.817861
  0
LINE
  8
_0-0__
  6
CONTINUOUS
 62
    3
 10
289.14607
 20
41.817861
 11
273.14607
 21
41.817861
  0
LINE
  8
_0-0__
  6
CONTINUOUS
 62
    3
 10
231.1462
 20
41.817891
 11
229.1462
 21
41.817901
  0
LINE
  8
_0-0__
  6
CONTINUOUS
 62
    3
 10
300.14607
 20
41.817821
 11
298.14607
 21
41.817821
  0
LINE
  8
_0-0__
  6
CONTINUOUS
 62
    3
 10
231.1462
 20
48.817891
 11
231.1462
 21
41.817891
  0
ARC
  8
_0-0__
  6
CONTINUOUS
 62
    3
 10
232.1462
 20
48.817891
 40
1
 50
89.99987
 51
180
  0
LINE
  8
_0-0__
  6
CONTINUOUS
 62
    3
 10
236.14607
 20
49.817881
 11
232.1462
 21
49.817891
  0
ARC
  8
_0-0__
  6
CONTINUOUS
 62
    3
 10
236.14607
 20
48.817881
 40
1
 50
0
 51
89.99987
  0
ARC
  8
_0-0__
  6
CONTINUOUS
 62
    3
 10
240.14607
 20
29.817871
 40
1
 50
180
 51
269.99987
  0
LINE
  8
_0-0__
  6
CONTINUOUS
 62
    3
 10
229.1462
 20
48.817891
 11
229.1462
 21
41.817901
  0
ARC
  8
_0-0__
  6
CONTINUOUS
 62
    3
 10
232.1462
 20
48.817891
 40
3
 50
89.99987
 51
180
  0
LINE
  8
_0-0__
  6
CONTINUOUS
 62
    3
 10
236.14607
 20
51.817881
 11
232.1462
 21
51.817891
  0
LINE
  8
_0-0__
  6
CONTINUOUS
 62
    3
 10
239.14607
 20
48.817881
 11
239.14607
 21
29.817871
  0
ARC
  8
_0-0__
  6
CONTINUOUS
 62
    3
 10
236.14607
 20
48.817881
 40
3
 50
0
 51
89.99987
  0
LINE
  8
_0-0__
  6
CONTINUOUS
 62
    3
 10
237.14607
 20
29.817871
 11
237.14607
 21
48.817881
  0
ARC
  8
_0-0__
  6
CONTINUOUS
 62
    3
 10
240.14607
 20
29.817871
 40
3
 50
180
 51
269.99987
  0
LINE
  8
_0-0__
  6
CONTINUOUS
 62
    3
 10
256.14606
 20
26.817841
 11
240.14606
 21
26.817871
  0
ARC
  8
_0-0__
  6
CONTINUOUS
 62
    3
 10
256.14607
 20
29.817841
 40
3
 50
269.99987
 51
0
  0
ARC
  8
_0-0__
  6
CONTINUOUS
 62
    3
 10
260.14607
 20
48.817881
 40
3
 50
90
 51
180
  0
LINE
  8
_0-0__
  6
CONTINUOUS
 62
    3
 10
269.14607
 20
51.817881
 11
260.14607
 21
51.817881
  0
ARC
  8
_0-0__
  6
CONTINUOUS
 62
    3
 10
269.14607
 20
48.817881
 40
3
 50
0
 51
90
  0
ARC
  8
_0-0__
  6
CONTINUOUS
 62
    3
 10
273.14607
 20
29.817831
 40
3
 50
180
 51
270
  0
LINE
  8
_0-0__
  6
CONTINUOUS
 62
    3
 10
289.14607
 20
26.817831
 11
273.14607
 21
26.817831
  0
ARC
  8
_0-0__
  6
CONTINUOUS
 62
    3
 10
289.14607
 20
29.817831
 40
3
 50
270
 51
0
  0
LINE
  8
_0-0__
  6
CONTINUOUS
 62
    3
 10
300.14607
 20
48.817821
 11
300.14607
 21
41.817821
  0
ARC
  8
_0-0__
  6
CONTINUOUS
 62
    3
 10
297.14607
 20
48.817821
 40
3
 50
0
 51
89.99987
  0
LINE
  8
_0-0__
  6
CONTINUOUS
 62
    3
 10
293.14607
 20
51.817831
 11
297.14607
 21
51.817821
  0
ARC
  8
_0-0__
  6
CONTINUOUS
 62
    3
 10
293.14607
 20
48.817831
 40
3
 50
89.99987
 51
180
  0
LINE
  8
_0-0__
  6
CONTINUOUS
 62
    3
 10
298.14607
 20
48.817881
 11
298.14607
 21
41.817821
  0
ARC
  8
_0-0__
  6
CONTINUOUS
 62
    3
 10
297.14607
 20
48.817881
 40
1
 50
0
 51
90
  0
LINE
  8
_0-0__
  6
CONTINUOUS
 62
    3
 10
292.14607
 20
48.817881
 11
292.14607
 21
29.817831
  0
LINE
  8
_0-0__
  6
CONTINUOUS
 62
    3
 10
293.14607
 20
49.817881
 11
297.14607
 21
49.817881
  0
ARC
  8
_0-0__
  6
CONTINUOUS
 62
    3
 10
293.14607
 20
48.817881
 40
1
 50
90
 51
180
  0
LINE
  8
_0-0__
  6
CONTINUOUS
 62
    3
 10
290.14607
 20
29.817841
 11
290.14607
 21
48.817831
  0
ARC
  8
_0-0__
  6
CONTINUOUS
 62
    3
 10
289.14607
 20
29.817841
 40
1
 50
270
 51
0
  0
LINE
  8
_0-0__
  6
CONTINUOUS
 62
    3
 10
273.14607
 20
28.817841
 11
289.14607
 21
28.817841
  0
LINE
  8
_0-0__
  6
CONTINUOUS
 62
    3
 10
272.14607
 20
29.817841
 11
272.14607
 21
48.817881
  0
ARC
  8
_0-0__
  6
CONTINUOUS
 62
    3
 10
273.14607
 20
29.817841
 40
1
 50
180
 51
270
  0
LINE
  8
_0-0__
  6
CONTINUOUS
 62
    3
 10
270.14607
 20
48.817881
 11
270.14607
 21
29.817831
  0
ARC
  8
_0-0__
  6
CONTINUOUS
 62
    3
 10
269.14607
 20
48.817881
 40
1
 50
0
 51
90
  0
LINE
  8
_0-0__
  6
CONTINUOUS
 62
    3
 10
260.14607
 20
49.817881
 11
269.14607
 21
49.817881
  0
LINE
  8
_0-0__
  6
CONTINUOUS
 62
    3
 10
259.14607
 20
48.817881
 11
259.14607
 21
29.817841
  0
ARC
  8
_0-0__
  6
CONTINUOUS
 62
    3
 10
260.14607
 20
48.817881
 40
1
 50
90
 51
180
  0
LINE
  8
_0-0__
  6
CONTINUOUS
 62
    3
 10
256.14606
 20
28.817841
 11
240.14606
 21
28.817871
  0
LINE
  8
_0-0__
  6
CONTINUOUS
 62
    3
 10
257.14607
 20
29.817841
 11
257.14607
 21
48.817881
  0
ARC
  8
_0-0__
  6
CONTINUOUS
 62
    3
 10
256.14607
 20
29.817841
 40
1
 50
269.99987
 51
0
  0
LINE
  8
_0-0__
  6
CONTINUOUS
 62
    3
 10
300.1462
 20
256.18471
 11
300.14618
 21
246.18476
  0
LINE
  8
_0-0__
  6
CONTINUOUS
 62
    3
 10
300.14618
 20
246.18476
 11
349.14616
 21
246.18473
  0
LINE
  8
_0-0__
  6
CONTINUOUS
 62
    3
 10
301.6462
 20
256.18471
 11
301.64618
 21
247.6846
  0
LINE
  8
_0-0__
  6
CONTINUOUS
 62
    3
 10
301.64618
 20
247.6846
 11
347.64616
 21
247.68473
  0
LINE
  8
_0-0__
  6
CONTINUOUS
 62
    3
 10
300.1462
 20
256.18471
 11
301.6462
 21
256.18471
  0
LINE
  8
_0-0__
  6
CONTINUOUS
 62
    3
 10
224.64619
 20
417.92988
 11
219.56389
 21
431.9434
  0
LINE
  8
_0-0__
  6
CONTINUOUS
 62
    3
 10
219.56389
 20
431.9434
 11
174.56413
 21
431.9434
  0
TEXT
  8
_0-0__
 62
    7
 10
428.07942
 20
63.58062
 40
6
 41
1
 50
90
  1
1.本図面は予告無く変更される場合がございますのであらかじめご了承お願いします。
  0
TEXT
  8
_0-0__
 62
    7
 10
450.98954
 20
64.535208
 40
6
 41
1
 50
90
  1
2.詳細図面をご希望の方はJAD支店・営業所までご連絡お願いします。
  0
TEXT
  8
_0-0__
 62
    7
 10
124.70056
 20
181.66694
 40
10
 41
1
 50
90
  1
DS-230　納まり参考図（縦断面図）
  0
LINE
  8
_0-0__
  6
CONTINUOUS
 62
    4
 10
403.54701
 20
476.18472
 11
355.14616
 21
476.18472
  0
ENDSEC
  0
EOF
