  0
SECTION
  2
HEADER
  9
$ACADVER
  1
AC1009
  9
$INSBASE
 10
0
 20
0
 30
0
  9
$EXTMIN
 10
0
 20
0
  9
$EXTMAX
 10
594
 20
420
  9
$LIMMIN
 10
0
 20
0
  9
$LIMMAX
 10
594
 20
420
  9
$LTSCALE
 40
2
  0
ENDSEC
  0
SECTION
  2
TABLES
  0
TABLE
  2
LTYPE
 70
     9
  0
LTYPE
  2
CONTINUOUS
 70
    64
  3
実線
 72
    65
 73
     0
 40
0.0
  0
LTYPE
  2
DASHED1
 70
    64
  3
--  --  --  --  --  --  --  --  
 72
    65
 73
     2
 40
2.5
 49
1.25
 49
-1.25
  0
LTYPE
  2
DASHED2
 70
    64
  3
----    ----    ----    ----    
 72
    65
 73
     2
 40
5.0
 49
2.5
 49
-2.5
  0
LTYPE
  2
DASHED3
 70
    64
  3
------  ------  ------  ------  
 72
    65
 73
     2
 40
5.0
 49
3.75
 49
-1.25
  0
LTYPE
  2
CENTER1
 70
    64
  3
----- - ----- - ----- - ----- - 
 72
    65
 73
     4
 40
10.0
 49
6.25
 49
-1.25
 49
1.25
 49
-1.25
  0
LTYPE
  2
CENTER2
 70
    64
  3
----------  --  ----------  --  
 72
    65
 73
     4
 40
20.0
 49
12.5
 49
-2.5
 49
2.5
 49
-2.5
  0
LTYPE
  2
PHANTOM1
 70
    64
  3
--- - - --- - - --- - - --- - - 
 72
    65
 73
     6
 40
10.0
 49
3.25
 49
-1.25
 49
1.25
 49
-1.25
 49
1.25
 49
-1.25
  0
LTYPE
  2
PHANTOM2
 70
    64
  3
--------  -  -  --------  -  -  
 72
    65
 73
     6
 40
20.0
 49
10.0
 49
-2.5
 49
1.25
 49
-2.5
 49
1.25
 49
-2.5
  0
LTYPE
  2
DOT
 70
    64
  3
-   -   -   -   -   -   -   -   
 72
    65
 73
     2
 40
2.5
 49
0.625
 49
-1.875
  0
LTYPE
  2
DUMMY
 70
    64
  3
ダミー
 72
    65
 73
     0
 40
0.0
  0
LTYPE
  2
RAND1
 70
    64
  3
----- - ----- - ----- - ----- - 
 72
    65
 73
     4
 40
10.0
 49
6.25
 49
-1.25
 49
1.25
 49
-1.25
  0
LTYPE
  2
RAND2
 70
    64
  3
----------  --  ----------  --  
 72
    65
 73
     4
 40
20.0
 49
12.5
 49
-2.5
 49
2.5
 49
-2.5
  0
LTYPE
  2
RAND3
 70
    64
  3
--- - - --- - - --- - - --- - - 
 72
    65
 73
     6
 40
10.0
 49
3.25
 49
-1.25
 49
1.25
 49
-1.25
 49
1.25
 49
-1.25
  0
LTYPE
  2
RAND4
 70
    64
  3
--------  -  -  --------  -  -  
 72
    65
 73
     6
 40
20.0
 49
10.0
 49
-2.5
 49
1.25
 49
-2.5
 49
1.25
 49
-2.5
  0
LTYPE
  2
RAND5
 70
    64
  3
----- - ----- - ----- - ----- - 
 72
    65
 73
     4
 40
10.0
 49
6.25
 49
-1.25
 49
1.25
 49
-1.25
  0
LTYPE
  2
LONG1
 70
    64
  3
----------  --  ----------  --  
 72
    65
 73
     4
 40
20.0
 49
12.5
 49
-2.5
 49
2.5
 49
-2.5
  0
LTYPE
  2
LONG2
 70
    64
  3
--- - - --- - - --- - - --- - - 
 72
    65
 73
     6
 40
10.0
 49
3.25
 49
-1.25
 49
1.25
 49
-1.25
 49
1.25
 49
-1.25
  0
LTYPE
  2
LONG3
 70
    64
  3
--------  -  -  --------  -  -  
 72
    65
 73
     6
 40
20.0
 49
10.0
 49
-2.5
 49
1.25
 49
-2.5
 49
1.25
 49
-2.5
  0
LTYPE
  2
LONG4
 70
    64
  3
----- - ----- - ----- - ----- - 
 72
    65
 73
     4
 40
10.0
 49
6.25
 49
-1.25
 49
1.25
 49
-1.25
  0
LTYPE
  2
LONG5
 70
    64
  3
----------  --  ----------  --  
 72
    65
 73
     4
 40
20.0
 49
12.5
 49
-2.5
 49
2.5
 49
-2.5
  0
ENDTAB
  0
TABLE
  2
STYLE
  5
3
100
AcDbSymbolTable
 70
     1
  0
STYLE
  5
10
100
AcDbSymbolTableRecord
100
AcDbTextStyleTableRecord
  2
STANDARD
 70
     0
 40
0.0
 41
1.0
 50
0.0
 71
     0
 42
0.2
  3
txt
  4
bigfont.shx
  0
STYLE
  5
26
100
AcDbSymbolTableRecord
100
AcDbTextStyleTableRecord
  2
TATEGAKI
 70
    68
 40
0.0
 41
1.0
 50
0.0
 71
     0
 42
1.0
  3
txt
  4
bigfont.shx
  0
ENDTAB
  0
TABLE
  2
LAYER
 70
    4
  0
LAYER
  2
_0-0__
 70
   64
 62
    7
  6
CONTINUOUS
  0
LAYER
  2
_0-1__
 70
   64
 62
    7
  6
CONTINUOUS
  0
LAYER
  2
_0-d__
 70
   64
 62
    7
  6
CONTINUOUS
  0
LAYER
  2
ADD_LINE
 70
   64
 62
    7
  6
CONTINUOUS
  0
ENDTAB
  0
ENDSEC
  0
SECTION
  2
BLOCKS
  0
BLOCK
  2
-000-ADPLT
 70
   64
 10
0
 20
0
 30
0
  0
ENDBLK
  0
ENDSEC
  0
SECTION
  2
ENTITIES
  0
LINE
  8
_0-0__
  6
CONTINUOUS
 62
    5
 10
309.82987
 20
292.65924
 11
309.82987
 21
302.84117
  0
INSERT
  2
-000-ADPLT
  8
_0-d__
 10
-1196.0195
 20
-45.887588
 41
0.0025
 42
0.0025
 50
0
  0
INSERT
  2
-000-ADPLT
  8
_0-d__
 10
-1196.0195
 20
-45.887588
 41
0.0025
 42
0.0025
 50
0
  0
INSERT
  2
-000-ADPLT
  8
_0-d__
 10
-1196.0195
 20
-45.887588
 41
0.0025
 42
0.0025
 50
0
  0
INSERT
  2
-000-ADPLT
  8
_0-d__
 10
-1196.0195
 20
-45.887588
 41
0.0025
 42
0.0025
 50
0
  0
INSERT
  2
-000-ADPLT
  8
_0-d__
 10
-1196.0195
 20
-45.887588
 41
0.0025
 42
0.0025
 50
0
  0
INSERT
  2
-000-ADPLT
  8
_0-d__
 10
-1196.0195
 20
-45.887588
 41
0.0025
 42
0.0025
 50
0
  0
INSERT
  2
-000-ADPLT
  8
_0-d__
 10
-1196.0195
 20
-45.887588
 41
0.0025
 42
0.0025
 50
0
  0
INSERT
  2
-000-ADPLT
  8
_0-d__
 10
-1196.0195
 20
-45.887588
 41
0.0025
 42
0.0025
 50
0
  0
INSERT
  2
-000-ADPLT
  8
_0-d__
 10
-1196.0195
 20
-45.887588
 41
0.0025
 42
0.0025
 50
0
  0
INSERT
  2
-000-ADPLT
  8
_0-d__
 10
-1196.0195
 20
-45.887588
 41
0.0025
 42
0.0025
 50
0
  0
INSERT
  2
-000-ADPLT
  8
_0-d__
 10
-1196.0195
 20
-45.887588
 41
0.0025
 42
0.0025
 50
0
  0
LINE
  8
_0-0__
  6
CONTINUOUS
 62
    1
 10
113.95805
 20
492.46452
 11
113.95805
 21
-83.535475
  0
LINE
  8
_0-0__
  6
CONTINUOUS
 62
    1
 10
113.95805
 20
-83.535475
 11
509.95804
 21
-83.535475
  0
LINE
  8
_0-0__
  6
CONTINUOUS
 62
    1
 10
509.95804
 20
-83.535475
 11
509.95804
 21
492.46452
  0
LINE
  8
_0-0__
  6
CONTINUOUS
 62
    1
 10
509.95804
 20
492.46452
 11
113.95805
 21
492.46452
  0
LINE
  8
_0-0__
  6
CONTINUOUS
 62
    3
 10
318.63047
 20
269.03504
 11
363.63044
 21
269.03504
  0
LINE
  8
_0-0__
  6
CONTINUOUS
 62
    3
 10
363.62983
 20
419.03503
 11
363.63045
 21
269.03506
  0
LINE
  8
_0-0__
  6
CONTINUOUS
 62
    3
 10
308.62981
 20
419.035
 11
363.62983
 21
419.03503
  0
LINE
  8
_0-0__
  6
CONTINUOUS
 62
    3
 10
308.62981
 20
419.035
 11
308.62981
 21
417.035
  0
LINE
  8
_0-0__
  6
CONTINUOUS
 62
    3
 10
357.62985
 20
417.035
 11
308.62981
 21
417.035
  0
LINE
  8
_0-0__
  6
CONTINUOUS
 62
    3
 10
318.63045
 20
269.03488
 11
318.63045
 21
271.03488
  0
LINE
  8
_0-0__
  6
CONTINUOUS
 62
    3
 10
357.63042
 20
271.03488
 11
318.63045
 21
271.03488
  0
LINE
  8
_0-0__
  6
CONTINUOUS
 62
    3
 10
361.62995
 20
389.53504
 11
361.62985
 21
413.035
  0
ARC
  8
_0-0__
  6
CONTINUOUS
 62
    3
 10
357.63042
 20
275.03488
 40
4
 50
270.00001
 51
0.00023
  0
ARC
  8
_0-0__
  6
CONTINUOUS
 62
    3
 10
357.62985
 20
413.035
 40
4
 50
0.00023
 51
89.99998
  0
LINE
  8
_0-0__
  6
CONTINUOUS
 62
    3
 10
361.62958
 20
389.53504
 11
361.62995
 21
299.53505
  0
LINE
  8
_0-0__
  6
CONTINUOUS
 62
    3
 10
362.12995
 20
298.53505
 11
362.12995
 21
299.53505
  0
LINE
  8
_0-0__
  6
CONTINUOUS
 62
    3
 10
362.12995
 20
299.53505
 11
361.62995
 21
299.53505
  0
LINE
  8
_0-0__
  6
CONTINUOUS
 62
    3
 10
361.62995
 20
298.53505
 11
362.12995
 21
298.53505
  0
LINE
  8
_0-0__
  6
CONTINUOUS
 62
    3
 10
361.62995
 20
298.53505
 11
361.62995
 21
275.03489
  0
LINE
  8
_0-0__
  6
CONTINUOUS
 62
    7
 10
504.95804
 20
-78.535475
 11
504.95804
 21
487.46452
  0
LINE
  8
_0-0__
  6
CONTINUOUS
 62
    7
 10
504.95804
 20
487.46452
 11
118.95805
 21
487.46452
  0
LINE
  8
_0-0__
  6
CONTINUOUS
 62
    7
 10
118.95805
 20
487.46452
 11
118.95805
 21
-78.535475
  0
LINE
  8
_0-0__
  6
CONTINUOUS
 62
    7
 10
118.95805
 20
-78.535475
 11
504.95804
 21
-78.535475
  0
LINE
  8
_0-0__
  6
CONTINUOUS
 62
    7
 10
404.95804
 20
-63.535475
 11
404.95804
 21
-78.535475
  0
LINE
  8
_0-0__
  6
CONTINUOUS
 62
    7
 10
304.95805
 20
-63.535475
 11
504.95804
 21
-63.535475
  0
LINE
  8
_0-0__
  6
CONTINUOUS
 62
    7
 10
304.95805
 20
-48.535475
 11
504.95804
 21
-48.535475
  0
LINE
  8
_0-0__
  6
CONTINUOUS
 62
    7
 10
304.95805
 20
-48.535475
 11
304.95805
 21
-78.535475
  0
LINE
  8
_0-0__
  6
CONTINUOUS
 62
    7
 10
434.95804
 20
-48.535475
 11
434.95804
 21
-63.535475
  0
LINE
  8
_0-0__
  6
CONTINUOUS
 62
    4
 10
263.62988
 20
433.78875
 11
363.62988
 21
433.78875
  0
LINE
  8
_0-0__
  6
CONTINUOUS
 62
    4
 10
263.62988
 20
433.78875
 11
269.42543
 21
435.34166
  0
LINE
  8
_0-0__
  6
CONTINUOUS
 62
    4
 10
263.62988
 20
433.78875
 11
269.42543
 21
432.23583
  0
LINE
  8
_0-0__
  6
CONTINUOUS
 62
    4
 10
363.62988
 20
433.78875
 11
357.83432
 21
435.34166
  0
LINE
  8
_0-0__
  6
CONTINUOUS
 62
    4
 10
363.62988
 20
433.78875
 11
357.83432
 21
432.23583
  0
LINE
  8
_0-0__
  6
CONTINUOUS
 62
    4
 10
263.62988
 20
439.78875
 11
263.62988
 21
425.0346
  0
LINE
  8
_0-0__
  6
CONTINUOUS
 62
    4
 10
363.62988
 20
439.78875
 11
363.62988
 21
425.0346
  0
TEXT
  8
_0-0__
 62
    7
 10
305.62988
 20
433.78875
 40
10
 41
1
 50
0
  1
100
  0
LINE
  8
_0-0__
  6
CONTINUOUS
 62
    4
 10
384.55325
 20
269.0346
 11
384.55325
 21
259.0346
  0
LINE
  8
_0-0__
  6
CONTINUOUS
 62
    4
 10
384.55325
 20
279.0346
 11
384.55325
 21
289.0346
  0
LINE
  8
_0-0__
  6
CONTINUOUS
 62
    4
 10
384.55325
 20
269.0346
 11
384.55325
 21
279.0346
  0
LINE
  8
_0-0__
  6
CONTINUOUS
 62
    4
 10
384.55325
 20
269.0346
 11
386.10617
 21
263.23905
  0
LINE
  8
_0-0__
  6
CONTINUOUS
 62
    4
 10
384.55325
 20
269.0346
 11
383.00034
 21
263.23905
  0
LINE
  8
_0-0__
  6
CONTINUOUS
 62
    4
 10
384.55325
 20
279.0346
 11
386.10617
 21
284.83015
  0
LINE
  8
_0-0__
  6
CONTINUOUS
 62
    4
 10
384.55325
 20
279.0346
 11
383.00034
 21
284.83015
  0
LINE
  8
_0-0__
  6
CONTINUOUS
 62
    4
 10
390.55325
 20
269.0346
 11
369.62988
 21
269.0346
  0
LINE
  8
_0-0__
  6
CONTINUOUS
 62
    4
 10
390.55325
 20
279.0346
 11
315.62988
 21
279.0346
  0
LINE
  8
_0-0__
  6
CONTINUOUS
 62
    4
 10
264.62988
 20
-0.6511262
 11
280.62988
 21
-0.6511262
  0
LINE
  8
_0-0__
  6
CONTINUOUS
 62
    4
 10
264.62988
 20
-0.6511262
 11
270.42543
 21
0.9017837
  0
LINE
  8
_0-0__
  6
CONTINUOUS
 62
    4
 10
264.62988
 20
-0.6511262
 11
270.42543
 21
-2.2040462
  0
LINE
  8
_0-0__
  6
CONTINUOUS
 62
    4
 10
280.62988
 20
-0.6511262
 11
274.83432
 21
0.9017837
  0
LINE
  8
_0-0__
  6
CONTINUOUS
 62
    4
 10
280.62988
 20
-0.6511262
 11
274.83432
 21
-2.2040462
  0
LINE
  8
_0-0__
  6
CONTINUOUS
 62
    4
 10
264.62988
 20
-6.6511255
 11
264.62988
 21
19.872033
  0
LINE
  8
_0-0__
  6
CONTINUOUS
 62
    4
 10
280.62988
 20
-6.6511255
 11
280.62988
 21
7.8720336
  0
TEXT
  8
_0-0__
 62
    7
 10
267.37988
 20
-0.6511262
 40
10
 41
1
 50
0
  1
16
  0
LINE
  8
_0-0__
  6
CONTINUOUS
 62
    4
 10
280.62988
 20
-0.6511262
 11
298.62988
 21
-0.6511262
  0
LINE
  8
_0-0__
  6
CONTINUOUS
 62
    4
 10
280.62988
 20
-0.6511262
 11
286.42543
 21
0.9017837
  0
LINE
  8
_0-0__
  6
CONTINUOUS
 62
    4
 10
280.62988
 20
-0.6511262
 11
286.42543
 21
-2.2040462
  0
LINE
  8
_0-0__
  6
CONTINUOUS
 62
    4
 10
298.62988
 20
-0.6511262
 11
292.83432
 21
0.9017837
  0
LINE
  8
_0-0__
  6
CONTINUOUS
 62
    4
 10
298.62988
 20
-0.6511262
 11
292.83432
 21
-2.2040462
  0
LINE
  8
_0-0__
  6
CONTINUOUS
 62
    4
 10
298.62988
 20
-6.6511255
 11
298.62988
 21
7.8720336
  0
TEXT
  8
_0-0__
 62
    7
 10
284.37988
 20
-0.6511262
 40
10
 41
1
 50
0
  1
18
  0
LINE
  8
_0-0__
  6
CONTINUOUS
 62
    4
 10
298.62988
 20
-0.6511262
 11
308.62988
 21
-0.6511262
  0
LINE
  8
_0-0__
  6
CONTINUOUS
 62
    4
 10
298.62988
 20
-0.6511262
 11
304.42543
 21
0.9017837
  0
LINE
  8
_0-0__
  6
CONTINUOUS
 62
    4
 10
298.62988
 20
-0.6511262
 11
304.42543
 21
-2.2040462
  0
LINE
  8
_0-0__
  6
CONTINUOUS
 62
    4
 10
308.62988
 20
-0.6511262
 11
302.83432
 21
0.9017837
  0
LINE
  8
_0-0__
  6
CONTINUOUS
 62
    4
 10
308.62988
 20
-0.6511262
 11
302.83432
 21
-2.2040462
  0
LINE
  8
_0-0__
  6
CONTINUOUS
 62
    4
 10
308.62988
 20
-6.6511255
 11
308.62988
 21
19.872033
  0
TEXT
  8
_0-0__
 62
    7
 10
298.37988
 20
-0.6511262
 40
10
 41
1
 50
0
  1
10
  0
LINE
  8
_0-0__
  6
CONTINUOUS
 62
    3
 10
263.63
 20
390.03461
 11
263.62988
 21
416.0346
  0
LINE
  8
_0-0__
  6
CONTINUOUS
 62
    3
 10
301.62994
 20
419.0346
 11
266.62988
 21
419.0346
  0
ARC
  8
_0-0__
  6
CONTINUOUS
 62
    3
 10
266.62988
 20
416.0346
 40
3
 50
90.00001
 51
180.00017
  0
LINE
  8
_0-0__
  6
CONTINUOUS
 62
    3
 10
270.91963
 20
299.03457
 11
276.12992
 21
299.0346
  0
ARC
  8
_0-0__
  6
CONTINUOUS
 62
    3
 10
276.62992
 20
299.0346
 40
0.5
 50
359.99998
 51
180
  0
LINE
  8
_0-0__
  6
CONTINUOUS
 62
    3
 10
273.62988
 20
413.0346
 11
273.62988
 21
409.0346
  0
LINE
  8
_0-0__
  6
CONTINUOUS
 62
    3
 10
273.62988
 20
409.0346
 11
271.62988
 21
409.0346
  0
LINE
  8
_0-0__
  6
CONTINUOUS
 62
    3
 10
271.62988
 20
409.0346
 11
271.62988
 21
411.0346
  0
LINE
  8
_0-0__
  6
CONTINUOUS
 62
    3
 10
270.91962
 20
411.03457
 11
271.62988
 21
411.0346
  0
LINE
  8
_0-0__
  6
CONTINUOUS
 62
    3
 10
267.12988
 20
411.0346
 11
267.12988
 21
401.0346
  0
LINE
  8
_0-0__
  6
CONTINUOUS
 62
    3
 10
267.12988
 20
401.0346
 11
271.62988
 21
401.0346
  0
LINE
  8
_0-0__
  6
CONTINUOUS
 62
    3
 10
271.62988
 20
401.0346
 11
271.62988
 21
403.0346
  0
LINE
  8
_0-0__
  6
CONTINUOUS
 62
    3
 10
271.62988
 20
403.0346
 11
273.62988
 21
403.0346
  0
LINE
  8
_0-0__
  6
CONTINUOUS
 62
    3
 10
273.62989
 20
361.0346
 11
273.62989
 21
357.0346
  0
LINE
  8
_0-0__
  6
CONTINUOUS
 62
    3
 10
273.62989
 20
357.0346
 11
271.62989
 21
357.0346
  0
LINE
  8
_0-0__
  6
CONTINUOUS
 62
    3
 10
271.62989
 20
357.0346
 11
271.62989
 21
359.0346
  0
LINE
  8
_0-0__
  6
CONTINUOUS
 62
    3
 10
271.62989
 20
359.0346
 11
267.12989
 21
359.0346
  0
LINE
  8
_0-0__
  6
CONTINUOUS
 62
    3
 10
267.12989
 20
359.0346
 11
267.12989
 21
349.0346
  0
LINE
  8
_0-0__
  6
CONTINUOUS
 62
    3
 10
267.12989
 20
349.0346
 11
271.62989
 21
349.0346
  0
LINE
  8
_0-0__
  6
CONTINUOUS
 62
    3
 10
271.62989
 20
349.0346
 11
271.62989
 21
351.0346
  0
LINE
  8
_0-0__
  6
CONTINUOUS
 62
    3
 10
271.62989
 20
351.0346
 11
273.62989
 21
351.0346
  0
LINE
  8
_0-0__
  6
CONTINUOUS
 62
    3
 10
273.62989
 20
347.0346
 11
273.62989
 21
351.0346
  0
LINE
  8
_0-0__
  6
CONTINUOUS
 62
    3
 10
273.62988
 20
399.0346
 11
273.62988
 21
403.0346
  0
LINE
  8
_0-0__
  6
CONTINUOUS
 62
    3
 10
273.62988
 20
399.0346
 11
268.62995
 21
399.0346
  0
LINE
  8
_0-0__
  6
CONTINUOUS
 62
    3
 10
268.62994
 20
390.87235
 11
268.62986
 21
376.5346
  0
LINE
  8
_0-0__
  6
CONTINUOUS
 62
    3
 10
268.62989
 20
375.5346
 11
268.62989
 21
361.0346
  0
LINE
  8
_0-0__
  6
CONTINUOUS
 62
    3
 10
322.62986
 20
415.03463
 11
302.09434
 21
415.03462
  0
LINE
  8
_0-0__
  6
CONTINUOUS
 62
    3
 10
263.62989
 20
310.0346
 11
263.62989
 21
299.0346
  0
ARC
  8
_0-0__
  6
CONTINUOUS
 62
    3
 10
263.62989
 20
363.0346
 40
1
 50
269.99998
 51
0.00002
  0
ARC
  8
_0-0__
  6
CONTINUOUS
 62
    3
 10
263.62989
 20
389.03461
 40
1
 50
359.99998
 51
90.00001
  0
LINE
  8
_0-0__
  6
CONTINUOUS
 62
    3
 10
264.62989
 20
363.0346
 11
264.62989
 21
389.03461
  0
ARC
  8
_0-0__
  6
CONTINUOUS
 62
    3
 10
268.62989
 20
376.0346
 40
0.5
 50
90.00001
 51
269.99998
  0
ARC
  8
_0-0__
  6
CONTINUOUS
 62
    3
 10
270.12997
 20
394.03461
 40
3.5
 50
115.37752
 51
244.62253
  0
LINE
  8
_0-0__
  6
CONTINUOUS
 62
    3
 10
268.62992
 20
397.19687
 11
268.62992
 21
399.03457
  0
LINE
  8
_0-0__
  6
CONTINUOUS
 62
    3
 10
267.34003
 20
299.03457
 11
263.62989
 21
299.03457
  0
LINE
  8
_0-0__
  6
CONTINUOUS
 62
    3
 10
308.62985
 20
417.03457
 11
310.62985
 21
417.03457
  0
LINE
  8
_0-0__
  6
CONTINUOUS
 62
    3
 10
303.62994
 20
417.03457
 11
322.62986
 21
417.03457
  0
ARC
  8
_0-0__
  6
CONTINUOUS
 62
    3
 10
322.62986
 20
416.03463
 40
1
 50
270
 51
359.99998
  0
ARC
  8
_0-0__
  6
CONTINUOUS
 62
    3
 10
322.62986
 20
416.03457
 40
1
 50
359.99998
 51
90.00001
  0
LINE
  8
_0-0__
  6
CONTINUOUS
 62
    3
 10
303.62992
 20
417.03457
 11
301.62992
 21
419.03457
  0
LINE
  8
_0-0__
  6
CONTINUOUS
 62
    3
 10
268.62989
 20
361.0346
 11
273.62989
 21
361.0346
  0
LINE
  8
_0-0__
  6
CONTINUOUS
 62
    3
 10
267.34004
 20
299.03457
 11
268.00483
 21
300.18597
  0
LINE
  8
_0-0__
  6
CONTINUOUS
 62
    3
 10
270.91962
 20
299.03457
 11
270.25483
 21
300.18597
  0
ARC
  8
_0-0__
  6
CONTINUOUS
 62
    3
 10
271.30317
 20
301.55218
 40
0.5
 50
268.99719
 51
62.35341
  0
ARC
  8
_0-0__
  6
CONTINUOUS
 62
    3
 10
270.25483
 20
304.08313
 40
0.5
 50
342.08622
 51
138.71174
  0
ARC
  8
_0-0__
  6
CONTINUOUS
 62
    3
 10
268.00483
 20
304.08313
 40
0.5
 50
40.5643
 51
199.77816
  0
ARC
  8
_0-0__
  6
CONTINUOUS
 62
    3
 10
266.95649
 20
301.55218
 40
0.5
 50
117.41587
 51
277.73817
  0
ARC
  8
_0-0__
  6
CONTINUOUS
 62
    3
 10
269.15595
 20
302.14941
 40
2.25
 50
299.23442
 51
326.77788
  0
ARC
  8
_0-0__
  6
CONTINUOUS
 62
    3
 10
269.12812
 20
302.12292
 40
2.25
 50
3.100714
 51
42.23762
  0
ARC
  8
_0-0__
  6
CONTINUOUS
 62
    3
 10
269.15138
 20
302.11096
 40
2.25
 50
78.63975
 51
102.1992
  0
ARC
  8
_0-0__
  6
CONTINUOUS
 62
    3
 10
269.13227
 20
302.0899
 40
2.25
 50
137.50738
 51
176.12268
  0
ARC
  8
_0-0__
  6
CONTINUOUS
 62
    3
 10
269.26258
 20
302.05157
 40
2.25
 50
210.44474
 51
236.01212
  0
ARC
  8
_0-0__
  6
CONTINUOUS
 62
    3
 10
267.06422
 20
300.75946
 40
0.3
 50
30.44397
 51
97.73878
  0
ARC
  8
_0-0__
  6
CONTINUOUS
 62
    3
 10
266.58814
 20
302.26233
 40
0.3
 50
297.41482
 51
356.12117
  0
ARC
  8
_0-0__
  6
CONTINUOUS
 62
    3
 10
267.25202
 20
303.81244
 40
0.3
 50
317.50656
 51
19.77871
  0
ARC
  8
_0-0__
  6
CONTINUOUS
 62
    3
 10
268.61256
 20
304.60339
 40
0.3
 50
220.56621
 51
282.19899
  0
ARC
  8
_0-0__
  6
CONTINUOUS
 62
    3
 10
269.65369
 20
304.61102
 40
0.3
 50
258.6392
 51
318.71279
  0
ARC
  8
_0-0__
  6
CONTINUOUS
 62
    3
 10
271.01606
 20
303.83703
 40
0.3
 50
162.08435
 51
222.23759
  0
ARC
  8
_0-0__
  6
CONTINUOUS
 62
    3
 10
271.67439
 20
302.26086
 40
0.3
 50
183.0993
 51
242.35316
  0
ARC
  8
_0-0__
  6
CONTINUOUS
 62
    3
 10
271.28913
 20
300.75232
 40
0.3
 50
88.99602
 51
146.7779
  0
LINE
  8
_0-0__
  6
CONTINUOUS
 62
    3
 10
267.34
 20
411.0346
 11
268.00481
 21
412.186
  0
LINE
  8
_0-0__
  6
CONTINUOUS
 62
    3
 10
270.86186
 20
411.1346
 11
270.25481
 21
412.186
  0
ARC
  8
_0-0__
  6
CONTINUOUS
 62
    3
 10
271.30315
 20
413.55221
 40
0.5
 50
268.99719
 51
62.35341
  0
ARC
  8
_0-0__
  6
CONTINUOUS
 62
    3
 10
270.25481
 20
416.08315
 40
0.5
 50
342.08622
 51
138.71174
  0
ARC
  8
_0-0__
  6
CONTINUOUS
 62
    3
 10
268.00481
 20
416.08315
 40
0.5
 50
40.5643
 51
199.77816
  0
ARC
  8
_0-0__
  6
CONTINUOUS
 62
    3
 10
266.95647
 20
413.55221
 40
0.5
 50
117.41587
 51
277.73817
  0
ARC
  8
_0-0__
  6
CONTINUOUS
 62
    3
 10
269.15593
 20
414.14944
 40
2.25
 50
299.23442
 51
326.77788
  0
ARC
  8
_0-0__
  6
CONTINUOUS
 62
    3
 10
269.1281
 20
414.12295
 40
2.25
 50
3.100714
 51
42.23762
  0
ARC
  8
_0-0__
  6
CONTINUOUS
 62
    3
 10
269.15135
 20
414.11098
 40
2.25
 50
78.63975
 51
102.1992
  0
ARC
  8
_0-0__
  6
CONTINUOUS
 62
    3
 10
269.13225
 20
414.08993
 40
2.25
 50
137.50738
 51
176.12268
  0
ARC
  8
_0-0__
  6
CONTINUOUS
 62
    3
 10
269.26256
 20
414.0516
 40
2.25
 50
210.44474
 51
236.01212
  0
ARC
  8
_0-0__
  6
CONTINUOUS
 62
    3
 10
267.06419
 20
412.75948
 40
0.3
 50
30.44397
 51
97.73878
  0
ARC
  8
_0-0__
  6
CONTINUOUS
 62
    3
 10
266.58812
 20
414.26235
 40
0.3
 50
297.41482
 51
356.12117
  0
ARC
  8
_0-0__
  6
CONTINUOUS
 62
    3
 10
267.252
 20
415.81246
 40
0.3
 50
317.50656
 51
19.77871
  0
ARC
  8
_0-0__
  6
CONTINUOUS
 62
    3
 10
268.61253
 20
416.60342
 40
0.3
 50
220.56621
 51
282.19899
  0
ARC
  8
_0-0__
  6
CONTINUOUS
 62
    3
 10
269.65367
 20
416.61105
 40
0.3
 50
258.6392
 51
318.71279
  0
ARC
  8
_0-0__
  6
CONTINUOUS
 62
    3
 10
271.01604
 20
415.83706
 40
0.3
 50
162.08435
 51
222.23759
  0
ARC
  8
_0-0__
  6
CONTINUOUS
 62
    3
 10
271.67436
 20
414.26089
 40
0.3
 50
183.0993
 51
242.35316
  0
ARC
  8
_0-0__
  6
CONTINUOUS
 62
    3
 10
271.28911
 20
412.75234
 40
0.3
 50
88.99602
 51
146.7779
  0
LINE
  8
_0-0__
  6
CONTINUOUS
 62
    3
 10
263.62989
 20
307.06329
 11
263.62989
 21
310.72862
  0
LINE
  8
_0-0__
  6
CONTINUOUS
 62
    3
 10
267.12988
 20
411.0346
 11
267.39775
 21
411.0346
  0
LINE
  8
_0-0__
  6
CONTINUOUS
 62
    3
 10
291.63031
 20
302.53422
 11
289.62992
 21
299.03422
  0
LINE
  8
_0-0__
  6
CONTINUOUS
 62
    3
 10
289.62992
 20
299.03422
 11
277.12992
 21
299.03422
  0
ARC
  8
_0-0__
  6
CONTINUOUS
 62
    3
 10
276.63031
 20
305.53422
 40
1
 50
270
 51
0
  0
ARC
  8
_0-0__
  6
CONTINUOUS
 62
    3
 10
276.63031
 20
305.53422
 40
1
 50
180
 51
270
  0
LINE
  8
_0-0__
  6
CONTINUOUS
 62
    3
 10
275.63031
 20
305.53422
 11
275.63031
 21
306.80926
  0
ARC
  8
_0-0__
  6
CONTINUOUS
 62
    3
 10
260.82721
 20
293.36053
 40
20
 50
42.25536
 51
67.03715
  0
LINE
  8
_0-0__
  6
CONTINUOUS
 62
    3
 10
268.62989
 20
347.0346
 11
273.62989
 21
347.0346
  0
ARC
  8
_0-0__
  6
CONTINUOUS
 62
    3
 10
268.62989
 20
324.0346
 40
0.5
 50
90
 51
270
  0
LINE
  8
_0-0__
  6
CONTINUOUS
 62
    3
 10
268.62989
 20
311.77569
 11
268.62989
 21
323.5346
  0
LINE
  8
_0-0__
  6
CONTINUOUS
 62
    3
 10
268.62989
 20
324.5346
 11
268.62989
 21
347.0346
  0
LINE
  8
_0-0__
  6
CONTINUOUS
 62
    3
 10
263.62989
 20
362.0346
 11
263.62989
 21
329.0346
  0
LINE
  8
_0-0__
  6
CONTINUOUS
 62
    3
 10
263.62989
 20
319.0346
 11
263.62989
 21
307.06329
  0
ARC
  8
_0-0__
  6
CONTINUOUS
 62
    3
 10
263.62989
 20
320.0346
 40
1
 50
270
 51
0
  0
ARC
  8
_0-0__
  6
CONTINUOUS
 62
    3
 10
263.62989
 20
328.0346
 40
1
 50
0
 51
90
  0
LINE
  8
_0-0__
  6
CONTINUOUS
 62
    3
 10
264.62989
 20
320.0346
 11
264.62989
 21
328.0346
  0
LINE
  8
_0-0__
  6
CONTINUOUS
 62
    3
 10
273.5455
 20
399.03495
 11
273.62988
 21
399.11933
  0
LINE
  8
_0-0__
  6
CONTINUOUS
 62
    3
 10
273.62988
 20
409.0346
 11
273.62988
 21
416.5346
  0
LINE
  8
_0-0__
  6
CONTINUOUS
 62
    3
 10
300.59436
 20
416.5346
 11
273.62988
 21
416.5346
  0
LINE
  8
_0-0__
  6
CONTINUOUS
 62
    3
 10
302.09434
 20
415.03462
 11
300.59436
 21
416.5346
  0
LINE
  8
_0-0__
  6
CONTINUOUS
 62
    4
 10
182.18404
 20
269.03459
 11
182.18404
 21
299.0346
  0
LINE
  8
_0-0__
  6
CONTINUOUS
 62
    4
 10
182.18404
 20
269.03459
 11
180.63113
 21
274.83014
  0
LINE
  8
_0-0__
  6
CONTINUOUS
 62
    4
 10
182.18404
 20
269.03459
 11
183.73696
 21
274.83014
  0
LINE
  8
_0-0__
  6
CONTINUOUS
 62
    4
 10
182.18404
 20
299.0346
 11
180.63113
 21
293.23905
  0
LINE
  8
_0-0__
  6
CONTINUOUS
 62
    4
 10
182.18404
 20
299.0346
 11
183.73696
 21
293.23905
  0
LINE
  8
_0-0__
  6
CONTINUOUS
 62
    4
 10
176.18404
 20
269.03459
 11
190.12988
 21
269.03459
  0
LINE
  8
_0-0__
  6
CONTINUOUS
 62
    4
 10
176.18404
 20
299.0346
 11
257.62989
 21
299.0346
  0
TEXT
  8
_0-0__
 62
    7
 10
182.18404
 20
278.7846
 40
10
 41
1
 50
90
  1
30
  0
LINE
  8
_0-0__
  6
CONTINUOUS
 62
    4
 10
182.18404
 20
299.0346
 11
182.18404
 21
419.0346
  0
LINE
  8
_0-0__
  6
CONTINUOUS
 62
    4
 10
182.18404
 20
299.0346
 11
180.63113
 21
304.83016
  0
LINE
  8
_0-0__
  6
CONTINUOUS
 62
    4
 10
182.18404
 20
299.0346
 11
183.73696
 21
304.83016
  0
LINE
  8
_0-0__
  6
CONTINUOUS
 62
    4
 10
182.18404
 20
419.0346
 11
180.63113
 21
413.23904
  0
LINE
  8
_0-0__
  6
CONTINUOUS
 62
    4
 10
182.18404
 20
419.0346
 11
183.73696
 21
413.23904
  0
LINE
  8
_0-0__
  6
CONTINUOUS
 62
    4
 10
176.18404
 20
419.0346
 11
260.62987
 21
419.0346
  0
TEXT
  8
_0-0__
 62
    7
 10
182.18404
 20
351.0346
 40
10
 41
1
 50
90
  1
120
  0
LINE
  8
_0-0__
  6
CONTINUOUS
 62
    5
 10
298.62992
 20
337.93379
 11
303.62989
 21
337.93379
  0
LINE
  8
_0-0__
  6
CONTINUOUS
 62
    5
 10
268.62984
 20
281.03413
 11
311.62984
 21
281.03417
  0
LINE
  8
_0-0__
  6
CONTINUOUS
 62
    5
 10
311.62984
 20
281.03417
 11
311.62984
 21
286.03417
  0
LINE
  8
_0-0__
  6
CONTINUOUS
 62
    5
 10
308.12988
 20
314.48382
 11
311.50414
 21
314.48382
  0
LINE
  8
_0-0__
  6
CONTINUOUS
 62
    5
 10
312.62988
 20
318.93374
 11
312.62988
 21
316.43377
  0
LINE
  8
_0-0__
  6
CONTINUOUS
 62
    5
 10
311.50402
 20
314.48382
 11
312.62988
 21
316.43377
  0
LINE
  8
_0-0__
  6
CONTINUOUS
 62
    5
 10
311.50414
 20
336.38378
 11
312.62988
 21
334.43377
  0
ARC
  8
_0-0__
  6
CONTINUOUS
 62
    5
 10
308.16027
 20
333.93377
 40
4.497589
 50
359.99981
 51
6.382846
  0
LINE
  8
_0-0__
  6
CONTINUOUS
 62
    5
 10
308.23682
 20
336.38378
 11
311.50414
 21
336.38378
  0
LINE
  8
_0-0__
  6
CONTINUOUS
 62
    5
 10
319.8325
 20
348.73376
 11
347.8312
 21
348.73376
  0
LINE
  8
_0-0__
  6
CONTINUOUS
 62
    5
 10
324.33254
 20
344.23371
 11
347.8312
 21
344.23377
  0
LINE
  8
_0-0__
  6
CONTINUOUS
 62
    5
 10
319.83254
 20
341.43382
 11
319.8325
 21
348.73376
  0
LINE
  8
_0-0__
  6
CONTINUOUS
 62
    5
 10
324.33254
 20
338.93383
 11
324.33254
 21
344.23371
  0
LINE
  8
_0-0__
  6
CONTINUOUS
 62
    5
 10
347.8312
 20
348.73376
 11
347.8312
 21
344.23377
  0
LINE
  8
_0-0__
  6
CONTINUOUS
 62
    5
 10
306.62989
 20
341.43383
 11
319.83251
 21
341.43383
  0
LINE
  8
_0-0__
  6
CONTINUOUS
 62
    5
 10
322.33254
 20
336.93383
 11
309.12988
 21
336.93383
  0
ARC
  8
_0-0__
  6
CONTINUOUS
 62
    5
 10
322.33254
 20
338.93383
 40
2
 50
270
 51
359.99998
  0
ARC
  8
_0-0__
  6
CONTINUOUS
 62
    5
 10
309.12988
 20
335.93383
 40
1
 50
89.99998
 51
180.00001
  0
LINE
  8
_0-0__
  6
CONTINUOUS
 62
    5
 10
303.62988
 20
310.4338
 11
308.12989
 21
310.4338
  0
LINE
  8
_0-0__
  6
CONTINUOUS
 62
    5
 10
292.12991
 20
336.43376
 11
298.62992
 21
336.43376
  0
LINE
  8
_0-0__
  6
CONTINUOUS
 62
    5
 10
292.12991
 20
314.43376
 11
298.62991
 21
314.43376
  0
LINE
  8
_0-0__
  6
CONTINUOUS
 62
    5
 10
304.82989
 20
304.21615
 11
309.33906
 21
304.21615
  0
LINE
  8
_0-0__
  6
CONTINUOUS
 62
    5
 10
304.82987
 20
291.28417
 11
309.33912
 21
291.28417
  0
LINE
  8
_0-0__
  6
CONTINUOUS
 62
    5
 10
303.62989
 20
304.21615
 11
304.82989
 21
304.21615
  0
LINE
  8
_0-0__
  6
CONTINUOUS
 62
    5
 10
303.62989
 20
291.28417
 11
304.82989
 21
291.28417
  0
LINE
  8
_0-0__
  6
CONTINUOUS
 62
    5
 10
315.40818
 20
333.93376
 11
316.12988
 21
332.68376
  0
LINE
  8
_0-0__
  6
CONTINUOUS
 62
    5
 10
315.40818
 20
318.93376
 11
316.12988
 21
320.18376
  0
LINE
  8
_0-0__
  6
CONTINUOUS
 62
    5
 10
316.12989
 20
320.18376
 11
316.12988
 21
332.68376
  0
LINE
  8
_0-0__
  6
CONTINUOUS
 62
    5
 10
308.12989
 20
333.93376
 11
315.4082
 21
333.93376
  0
LINE
  8
_0-0__
  6
CONTINUOUS
 62
    5
 10
308.12988
 20
318.93376
 11
315.40813
 21
318.93376
  0
ARC
  8
_0-0__
  6
CONTINUOUS
 62
    5
 10
284.62989
 20
301.53374
 40
10
 50
45.65083
 51
134.34916
  0
ARC
  8
_0-0__
  6
CONTINUOUS
 62
    5
 10
284.62989
 20
349.33374
 40
10
 50
225.65083
 51
314.34916
  0
LINE
  8
_0-0__
  6
CONTINUOUS
 62
    5
 10
277.12989
 20
341.96828
 11
277.12989
 21
308.8992
  0
ARC
  8
_0-0__
  6
CONTINUOUS
 62
    5
 10
291.82989
 20
308.8992
 40
0.3
 50
225.65083
 51
0
  0
ARC
  8
_0-0__
  6
CONTINUOUS
 62
    5
 10
291.82989
 20
341.96828
 40
0.3
 50
0
 51
134.34916
  0
ARC
  8
_0-0__
  6
CONTINUOUS
 62
    5
 10
277.42989
 20
341.96828
 40
0.3
 50
45.65083
 51
180
  0
ARC
  8
_0-0__
  6
CONTINUOUS
 62
    5
 10
277.42989
 20
308.8992
 40
0.3
 50
180
 51
314.34916
  0
LINE
  8
_0-0__
  6
CONTINUOUS
 62
    5
 10
268.62984
 20
281.03413
 11
268.62984
 21
286.03417
  0
LINE
  8
_0-0__
  6
CONTINUOUS
 62
    5
 10
273.62989
 20
369.03503
 11
273.62989
 21
365.03503
  0
ARC
  8
_0-0__
  6
CONTINUOUS
 62
    5
 10
326.62989
 20
375.53503
 40
1
 50
270
 51
0
  0
LINE
  8
_0-0__
  6
CONTINUOUS
 62
    5
 10
349.12992
 20
410.03473
 11
347.62992
 21
410.03473
  0
LINE
  8
_0-0__
  6
CONTINUOUS
 62
    5
 10
347.62992
 20
410.03473
 11
346.62992
 21
407.03473
  0
LINE
  8
_0-0__
  6
CONTINUOUS
 62
    5
 10
331.62991
 20
407.03473
 11
330.62991
 21
410.03473
  0
LINE
  8
_0-0__
  6
CONTINUOUS
 62
    5
 10
330.62991
 20
410.03473
 11
329.12991
 21
410.03473
  0
LINE
  8
_0-0__
  6
CONTINUOUS
 62
    5
 10
331.62808
 20
409.91694
 11
346.71329
 21
409.86048
  0
LINE
  8
_0-0__
  6
CONTINUOUS
 62
    5
 10
346.71329
 20
409.86048
 11
346.71329
 21
409.74744
  0
LINE
  8
_0-0__
  6
CONTINUOUS
 62
    5
 10
349.12992
 20
382.03474
 11
349.12992
 21
410.03473
  0
LINE
  8
_0-0__
  6
CONTINUOUS
 62
    5
 10
349.12992
 20
354.03474
 11
347.62992
 21
354.03474
  0
LINE
  8
_0-0__
  6
CONTINUOUS
 62
    5
 10
347.62992
 20
354.03474
 11
346.62992
 21
357.03474
  0
LINE
  8
_0-0__
  6
CONTINUOUS
 62
    5
 10
331.62991
 20
357.03474
 11
330.62991
 21
354.03474
  0
LINE
  8
_0-0__
  6
CONTINUOUS
 62
    5
 10
330.62991
 20
354.03474
 11
329.12991
 21
354.03474
  0
LINE
  8
_0-0__
  6
CONTINUOUS
 62
    5
 10
331.62991
 20
357.03474
 11
331.62808
 21
354.15254
  0
LINE
  8
_0-0__
  6
CONTINUOUS
 62
    5
 10
331.62808
 20
354.15254
 11
346.71329
 21
354.209
  0
LINE
  8
_0-0__
  6
CONTINUOUS
 62
    5
 10
346.71329
 20
354.209
 11
346.71329
 21
354.32203
  0
LINE
  8
_0-0__
  6
CONTINUOUS
 62
    5
 10
346.71329
 20
354.32203
 11
346.62992
 21
357.03474
  0
LINE
  8
_0-0__
  6
CONTINUOUS
 62
    5
 10
349.12992
 20
382.03474
 11
349.12992
 21
354.03474
  0
LINE
  8
_0-0__
  6
CONTINUOUS
 62
    5
 10
329.12991
 20
392.03474
 11
327.62991
 21
392.03474
  0
LINE
  8
_0-0__
  6
CONTINUOUS
 62
    5
 10
329.12991
 20
372.03474
 11
327.62991
 21
372.03474
  0
LINE
  8
_0-0__
  6
CONTINUOUS
 62
    5
 10
273.62992
 20
347.0346
 11
273.62992
 21
413.0346
  0
LINE
  8
_0-0__
  6
CONTINUOUS
 62
    5
 10
278.12992
 20
347.0346
 11
273.62989
 21
347.0346
  0
LINE
  8
_0-0__
  6
CONTINUOUS
 62
    5
 10
278.12992
 20
413.0346
 11
273.62988
 21
413.0346
  0
LINE
  8
_0-0__
  6
CONTINUOUS
 62
    5
 10
278.12992
 20
414.03499
 11
278.12992
 21
414.03502
  0
LINE
  8
_0-0__
  6
CONTINUOUS
 62
    5
 10
280.62988
 20
287.23418
 11
280.62988
 21
286.03417
  0
LINE
  8
_0-0__
  6
CONTINUOUS
 62
    5
 10
282.12986
 20
287.23418
 11
282.12988
 21
293.0125
  0
LINE
  8
_0-0__
  6
CONTINUOUS
 62
    5
 10
297.12988
 20
287.23418
 11
297.12988
 21
293.01244
  0
LINE
  8
_0-0__
  6
CONTINUOUS
 62
    5
 10
282.12988
 20
293.01248
 11
283.37988
 21
293.73418
  0
LINE
  8
_0-0__
  6
CONTINUOUS
 62
    5
 10
297.12988
 20
293.01248
 11
295.87988
 21
293.73418
  0
LINE
  8
_0-0__
  6
CONTINUOUS
 62
    5
 10
295.87988
 20
293.73419
 11
283.37988
 21
293.73418
  0
LINE
  8
_0-0__
  6
CONTINUOUS
 62
    4
 10
263.62988
 20
233.04724
 11
253.62988
 21
233.04724
  0
LINE
  8
_0-0__
  6
CONTINUOUS
 62
    4
 10
269.62988
 20
233.04724
 11
309.62988
 21
233.04724
  0
LINE
  8
_0-0__
  6
CONTINUOUS
 62
    4
 10
263.62988
 20
233.04724
 11
269.62988
 21
233.04724
  0
LINE
  8
_0-0__
  6
CONTINUOUS
 62
    4
 10
263.62988
 20
233.04724
 11
257.83432
 21
231.49432
  0
LINE
  8
_0-0__
  6
CONTINUOUS
 62
    4
 10
263.62988
 20
233.04724
 11
257.83432
 21
234.60015
  0
LINE
  8
_0-0__
  6
CONTINUOUS
 62
    4
 10
269.62988
 20
233.04724
 11
275.42543
 21
231.49432
  0
LINE
  8
_0-0__
  6
CONTINUOUS
 62
    4
 10
269.62988
 20
233.04724
 11
275.42543
 21
234.60015
  0
LINE
  8
_0-0__
  6
CONTINUOUS
 62
    4
 10
263.62988
 20
227.04724
 11
263.62988
 21
263.53459
  0
TEXT
  8
_0-0__
 62
    7
 10
264.12988
 20
233.04724
 40
10
 41
1
 50
0
  1
6
  0
LINE
  8
_0-0__
  6
CONTINUOUS
 62
    4
 10
309.62988
 20
233.04724
 11
303.83432
 21
234.60015
  0
LINE
  8
_0-0__
  6
CONTINUOUS
 62
    4
 10
309.62988
 20
233.04724
 11
303.83432
 21
231.49432
  0
TEXT
  8
_0-0__
 62
    7
 10
284.37988
 20
233.04724
 40
10
 41
1
 50
0
  1
40
  0
LINE
  8
_0-0__
  6
CONTINUOUS
 62
    4
 10
318.63047
 20
233.04724
 11
363.63044
 21
233.04724
  0
LINE
  8
_0-0__
  6
CONTINUOUS
 62
    4
 10
309.62988
 20
233.04724
 11
318.63047
 21
233.04724
  0
LINE
  8
_0-0__
  6
CONTINUOUS
 62
    4
 10
318.63047
 20
233.04724
 11
324.42602
 21
231.49432
  0
LINE
  8
_0-0__
  6
CONTINUOUS
 62
    4
 10
318.63047
 20
233.04724
 11
324.42602
 21
234.60015
  0
LINE
  8
_0-0__
  6
CONTINUOUS
 62
    4
 10
318.63047
 20
227.04724
 11
318.63047
 21
263.03504
  0
TEXT
  8
_0-0__
 62
    7
 10
311.63017
 20
233.04724
 40
10
 41
1
 50
0
  1
9
  0
LINE
  8
_0-0__
  6
CONTINUOUS
 62
    4
 10
363.63044
 20
233.04724
 11
357.83488
 21
234.60015
  0
LINE
  8
_0-0__
  6
CONTINUOUS
 62
    4
 10
363.63044
 20
233.04724
 11
357.83488
 21
231.49432
  0
LINE
  8
_0-0__
  6
CONTINUOUS
 62
    4
 10
363.63044
 20
227.04724
 11
363.63044
 21
263.03504
  0
TEXT
  8
_0-0__
 62
    7
 10
335.88045
 20
233.04724
 40
10
 41
1
 50
0
  1
45
  0
POINT
  8
_0-0__
 62
    1
 10
113.95805
 20
492.46452
  0
LINE
  8
_0-0__
  6
CONTINUOUS
 62
    5
 10
326.62989
 20
409.53502
 11
278.12992
 21
409.53502
  0
LINE
  8
_0-0__
  6
CONTINUOUS
 62
    5
 10
278.12992
 20
347.03503
 11
319.83251
 21
347.03503
  0
TEXT
  8
_0-0__
 62
    7
 10
307.55338
 20
-74.916825
 40
10
 41
1
 50
0
  1
JA-150S-HB
  0
TEXT
  8
_0-0__
 62
    7
 10
375.51101
 20
-72.399875
 40
6
 41
1
 50
0
  1
（片引）
  0
TEXT
  8
_0-0__
 62
    7
 10
407.60204
 20
-75.546065
 40
10
 41
1
 50
0
  1
JA-150D-HB
  0
TEXT
  8
_0-0__
 62
    7
 10
475.55974
 20
-73.029115
 40
6
 41
1
 50
0
  1
（両引）
  0
TEXT
  8
_0-0__
 62
    7
 10
307.55338
 20
-60.444365
 40
10
 41
1
 50
0
  1
スライドタイプ（中量）
  0
TEXT
  8
_0-0__
 62
    7
 10
437.80544
 20
-59.815135
 40
6
 41
1
 50
0
  1
トステム株式会社
  0
LINE
  8
_0-0__
  6
CONTINUOUS
 62
    5
 10
346.71329
 20
409.74744
 11
346.62992
 21
407.03473
  0
LINE
  8
_0-0__
  6
CONTINUOUS
 62
    5
 10
331.62991
 20
407.03473
 11
331.62808
 21
409.91694
  0
LINE
  8
_0-0__
  6
CONTINUOUS
 62
    5
 10
329.12991
 20
392.03474
 11
329.12991
 21
410.03473
  0
LINE
  8
_0-0__
  6
CONTINUOUS
 62
    5
 10
329.12991
 20
372.03474
 11
329.12991
 21
354.03474
  0
LINE
  8
_0-0__
  6
CONTINUOUS
 62
    5
 10
326.62989
 20
389.53503
 11
326.62989
 21
389.54135
  0
LINE
  8
_0-0__
  6
CONTINUOUS
 62
    5
 10
327.62992
 20
388.55552
 11
327.62992
 21
389.77479
  0
LINE
  8
_0-0__
  6
CONTINUOUS
 62
    5
 10
327.62991
 20
388.54936
 11
327.62991
 21
392.03474
  0
ARC
  8
_0-0__
  6
CONTINUOUS
 62
    5
 10
326.62989
 20
388.53503
 40
1
 50
0.8212111
 51
90
  0
ARC
  8
_0-1__
  6
CONTINUOUS
 62
    5
 10
326.62989
 20
388.53503
 40
1
 50
0
 51
90
  0
ARC
  8
_0-1__
  6
CONTINUOUS
 62
    5
 10
326.62989
 20
375.53503
 40
1
 50
270
 51
0
  0
LINE
  8
_0-1__
  6
CONTINUOUS
 62
    5
 10
326.62989
 20
348.73376
 11
326.62989
 21
374.53503
  0
LINE
  8
_0-0__
  6
CONTINUOUS
 62
    5
 10
326.62989
 20
389.53503
 11
326.62989
 21
409.53502
  0
LINE
  8
_0-1__
  6
CONTINUOUS
 62
    5
 10
327.62991
 20
372.03474
 11
327.62991
 21
375.53503
  0
LINE
  8
_0-0__
  6
CONTINUOUS
 62
    5
 10
278.12992
 20
409.53502
 11
278.12992
 21
413.0346
  0
LINE
  8
_0-0__
  6
CONTINUOUS
 62
    5
 10
292.12989
 20
341.96828
 11
292.12989
 21
336.43376
  0
LINE
  8
_0-0__
  6
CONTINUOUS
 62
    5
 10
298.62992
 20
336.43376
 11
298.62992
 21
337.93379
  0
LINE
  8
_0-0__
  6
CONTINUOUS
 62
    5
 10
292.12989
 20
314.43376
 11
292.12989
 21
308.8992
  0
LINE
  8
_0-0__
  6
CONTINUOUS
 62
    5
 10
303.62989
 20
304.21615
 11
303.62989
 21
310.4338
  0
LINE
  8
_0-0__
  6
CONTINUOUS
 62
    5
 10
303.62989
 20
286.03415
 11
303.62989
 21
291.28417
  0
LINE
  8
_0-0__
  6
CONTINUOUS
 62
    5
 10
303.62989
 20
337.93379
 11
303.62989
 21
338.43383
  0
ARC
  8
_0-0__
  6
CONTINUOUS
 62
    5
 10
306.62989
 20
338.43383
 40
3
 50
89.99998
 51
182.41901
  0
LINE
  8
_0-0__
  6
CONTINUOUS
 62
    5
 10
308.12988
 20
333.93376
 11
308.12988
 21
335.93383
  0
LINE
  8
_0-0__
  6
CONTINUOUS
 62
    5
 10
308.12988
 20
310.4338
 11
308.12988
 21
318.93376
  0
ARC
  8
_0-0__
  6
CONTINUOUS
 62
    5
 10
307.62354
 20
292.65924
 40
2.171456
 50
320.71427
 51
0
  0
ARC
  8
_0-0__
  6
CONTINUOUS
 62
    5
 10
307.65835
 20
302.84117
 40
2.171456
 50
0
 51
39.28529
  0
LINE
  8
_0-0__
  6
CONTINUOUS
 62
    5
 10
282.12988
 20
287.23418
 11
280.62988
 21
287.23418
  0
LINE
  8
_0-0__
  6
CONTINUOUS
 62
    5
 10
298.62988
 20
287.23418
 11
297.12988
 21
287.23418
  0
LINE
  8
_0-0__
  6
CONTINUOUS
 62
    5
 10
268.62984
 20
286.03417
 11
280.62988
 21
286.03416
  0
LINE
  8
_0-0__
  6
CONTINUOUS
 62
    5
 10
298.62988
 20
286.03415
 11
311.62984
 21
286.03415
  0
LINE
  8
_0-0__
  6
CONTINUOUS
 62
    3
 10
277.63031
 20
308.19111
 11
277.63031
 21
305.53422
  0
LINE
  8
_0-0__
  6
CONTINUOUS
 62
    3
 10
291.63031
 20
308.19007
 11
291.63031
 21
302.53422
  0
ARC
  8
_0-0__
  6
CONTINUOUS
 62
    3
 10
284.62989
 20
302.53374
 40
9
 50
38.938187
 51
141.0533
  0
LINE
  8
_0-0__
  6
CONTINUOUS
 62
    5
 10
298.62988
 20
286.03417
 11
298.62988
 21
287.23418
  0
LINE
  8
_0-0__
  6
CONTINUOUS
 62
    5
 10
298.62988
 20
287.23418
 11
298.62988
 21
286.03417
  0
LINE
  8
_0-0__
  6
CONTINUOUS
 62
    5
 10
298.62991
 20
314.43376
 11
298.62991
 21
287.23418
  0
TEXT
  8
_0-0__
 62
    7
 10
159.96391
 20
116.55826
 40
10
 41
1
 50
90
  1
JA-150　納まり参考図（縦断面図）
  0
TEXT
  8
_0-0__
 62
    7
 10
463.04884
 20
35.572949
 40
6
 41
1
 50
90
  1
1.本図面は予告無く変更される場合がございますのであらかじめご了承お願いします。
  0
TEXT
  8
_0-0__
 62
    7
 10
485.95896
 20
36.527537
 40
6
 41
1
 50
90
  1
2.詳細図面をご希望の方はJAD支店・営業所までご連絡お願いします。
  0
LINE
  8
_0-0__
  6
CONTINUOUS
 62
    3
 10
307.37994
 20
236.53463
 11
307.37994
 21
198.33453
  0
LINE
  8
_0-0__
  6
CONTINUOUS
 62
    3
 10
271.87999
 20
236.53463
 11
271.87999
 21
198.33453
  0
ARC
  8
_0-0__
  6
DASHED1
 62
    3
 10
300.62985
 20
275.03459
 40
4
 50
0
 51
90
  0
ARC
  8
_0-0__
  6
DASHED1
 62
    3
 10
278.6299
 20
275.03459
 40
4
 50
90
 51
180
  0
ARC
  8
_0-0__
  6
DASHED1
 62
    3
 10
299.42985
 20
273.83459
 40
2
 50
0
 51
90
  0
ARC
  8
_0-0__
  6
DASHED1
 62
    3
 10
279.8299
 20
273.83459
 40
2
 50
90
 51
180
  0
LINE
  8
_0-0__
  6
DASHED1
 62
    3
 10
281.51898
 20
275.83459
 11
281.51898
 21
271.33459
  0
LINE
  8
_0-0__
  6
DASHED1
 62
    3
 10
298.37878
 20
275.83459
 11
298.37878
 21
271.33459
  0
LINE
  8
_0-0__
  6
DASHED1
 62
    3
 10
298.37878
 20
271.33459
 11
281.51898
 21
271.33459
  0
LINE
  8
_0-0__
  6
DASHED1
 62
    3
 10
299.42985
 20
275.83459
 11
279.8299
 21
275.83459
  0
LINE
  8
_0-0__
  6
DASHED1
 62
    3
 10
277.8299
 20
273.83459
 11
277.8299
 21
253.5346
  0
LINE
  8
_0-0__
  6
DASHED1
 62
    3
 10
301.42985
 20
273.83459
 11
301.42985
 21
253.5346
  0
LINE
  8
_0-0__
  6
DASHED1
 62
    3
 10
274.6299
 20
275.03459
 11
274.6299
 21
253.5346
  0
LINE
  8
_0-0__
  6
DASHED1
 62
    3
 10
304.62985
 20
275.03459
 11
304.62985
 21
253.5346
  0
LINE
  8
_0-0__
  6
DASHED1
 62
    3
 10
300.62985
 20
279.03459
 11
278.6299
 21
279.03459
  0
LINE
  8
_0-0__
  6
CONTINUOUS
 62
    3
 10
307.62988
 20
180.0346
 11
308.12988
 21
180.5346
  0
LINE
  8
_0-0__
  6
CONTINUOUS
 62
    3
 10
306.62994
 20
194.53451
 11
306.62994
 21
192.03451
  0
LINE
  8
_0-0__
  6
CONTINUOUS
 62
    3
 10
305.37988
 20
192.7662
 11
305.37988
 21
192.03451
  0
LINE
  8
_0-0__
  6
CONTINUOUS
 62
    3
 10
308.12988
 20
191.03451
 11
306.37988
 21
191.03451
  0
LINE
  8
_0-0__
  6
CONTINUOUS
 62
    3
 10
306.62988
 20
193.12509
 11
306.62988
 21
192.03451
  0
ARC
  8
_0-0__
  6
CONTINUOUS
 62
    3
 10
306.37988
 20
192.03451
 40
1
 50
180.00002
 51
270
  0
LINE
  8
_0-0__
  6
CONTINUOUS
 62
    3
 10
306.62988
 20
193.12509
 11
306.22873
 21
193.61522
  0
LINE
  8
_0-0__
  6
CONTINUOUS
 62
    3
 10
306.62994
 20
192.03451
 11
309.37994
 21
192.03451
  0
LINE
  8
_0-0__
  6
CONTINUOUS
 62
    3
 10
306.62988
 20
192.03451
 11
309.37988
 21
192.03451
  0
LINE
  8
_0-0__
  6
CONTINUOUS
 62
    3
 10
309.12988
 20
192.03451
 11
306.62988
 21
192.03451
  0
LINE
  8
_0-0__
  6
CONTINUOUS
 62
    3
 10
308.12988
 20
191.03451
 11
308.12988
 21
180.5346
  0
LINE
  8
_0-0__
  6
CONTINUOUS
 62
    3
 10
309.12988
 20
192.03451
 11
309.12988
 21
179.0346
  0
LINE
  8
_0-0__
  6
CONTINUOUS
 62
    3
 10
306.37994
 20
197.33452
 11
304.63405
 21
197.33452
  0
ARC
  8
_0-0__
  6
CONTINUOUS
 62
    3
 10
306.37994
 20
198.33452
 40
1
 50
269.99998
 51
0.000016
  0
LINE
  8
_0-0__
  6
CONTINUOUS
 62
    3
 10
307.37994
 20
240.53463
 11
307.37994
 21
236.53463
  0
ARC
  8
_0-0__
  6
CONTINUOUS
 62
    3
 10
306.37994
 20
250.03463
 40
1
 50
0.000037
 51
90.00002
  0
ARC
  8
_0-0__
  6
CONTINUOUS
 62
    3
 10
306.07994
 20
254.53463
 40
1
 50
269.99998
 51
0.000016
  0
LINE
  8
_0-0__
  6
CONTINUOUS
 62
    3
 10
307.37994
 20
240.53463
 11
307.37994
 21
250.03463
  0
LINE
  8
_0-0__
  6
CONTINUOUS
 62
    3
 10
307.07994
 20
276.53463
 11
305.12994
 21
276.53463
  0
LINE
  8
_0-0__
  6
CONTINUOUS
 62
    3
 10
309.37994
 20
278.53463
 11
308.87994
 21
279.03463
  0
LINE
  8
_0-0__
  6
CONTINUOUS
 62
    3
 10
305.62994
 20
279.03463
 11
305.12994
 21
278.53463
  0
LINE
  8
_0-0__
  6
CONTINUOUS
 62
    3
 10
305.62994
 20
279.03463
 11
308.87994
 21
279.03463
  0
LINE
  8
_0-0__
  6
CONTINUOUS
 62
    3
 10
305.12994
 20
278.53463
 11
305.12994
 21
276.53463
  0
LINE
  8
_0-0__
  6
CONTINUOUS
 62
    3
 10
307.07994
 20
254.53463
 11
307.07994
 21
276.53463
  0
LINE
  8
_0-0__
  6
CONTINUOUS
 62
    3
 10
309.37994
 20
278.53463
 11
309.37994
 21
230.03466
  0
LINE
  8
_0-0__
  6
CONTINUOUS
 62
    3
 10
309.37994
 20
230.03466
 11
309.37994
 21
192.03451
  0
LINE
  8
_0-0__
  6
CONTINUOUS
 62
    3
 10
306.62994
 20
194.53451
 11
306.12994
 21
195.03451
  0
LINE
  8
_0-0__
  6
CONTINUOUS
 62
    3
 10
300.12988
 20
181.03451
 11
298.12988
 21
181.03451
  0
LINE
  8
_0-0__
  6
CONTINUOUS
 62
    3
 10
297.62988
 20
183.03451
 11
297.62988
 21
181.53451
  0
LINE
  8
_0-0__
  6
CONTINUOUS
 62
    3
 10
300.12988
 20
183.03451
 11
297.62988
 21
183.03451
  0
LINE
  8
_0-0__
  6
CONTINUOUS
 62
    3
 10
297.62988
 20
181.53451
 11
298.12988
 21
181.03451
  0
LINE
  8
_0-0__
  6
CONTINUOUS
 62
    3
 10
301.12988
 20
180.5346
 11
301.62988
 21
180.0346
  0
LINE
  8
_0-0__
  6
CONTINUOUS
 62
    3
 10
300.12988
 20
179.0346
 11
300.12988
 21
181.03427
  0
LINE
  8
_0-0__
  6
CONTINUOUS
 62
    3
 10
300.12988
 20
188.03451
 11
298.12988
 21
188.03451
  0
LINE
  8
_0-0__
  6
CONTINUOUS
 62
    3
 10
300.12988
 20
189.03451
 11
298.12988
 21
189.03451
  0
LINE
  8
_0-0__
  6
CONTINUOUS
 62
    3
 10
298.12988
 20
189.03451
 11
298.12988
 21
188.03451
  0
LINE
  8
_0-0__
  6
CONTINUOUS
 62
    3
 10
296.05563
 20
194.22867
 11
300.05554
 21
194.82874
  0
LINE
  8
_0-0__
  6
CONTINUOUS
 62
    3
 10
299.55585
 20
193.74261
 11
296.20393
 21
193.23993
  0
LINE
  8
_0-0__
  6
CONTINUOUS
 62
    3
 10
300.12988
 20
193.24838
 11
299.55588
 21
193.74287
  0
LINE
  8
_0-0__
  6
CONTINUOUS
 62
    3
 10
301.72875
 20
193.50228
 11
301.12977
 21
193.01205
  0
LINE
  8
_0-0__
  6
CONTINUOUS
 62
    3
 10
300.22875
 20
194.82455
 11
300.0559
 21
194.82892
  0
LINE
  8
_0-0__
  6
CONTINUOUS
 62
    3
 10
296.0559
 20
194.22884
 11
296.20409
 21
193.24011
  0
LINE
  8
_0-0__
  6
CONTINUOUS
 62
    3
 10
300.12988
 20
189.03451
 11
300.12988
 21
193.24814
  0
LINE
  8
_0-0__
  6
CONTINUOUS
 62
    3
 10
294.62999
 20
193.23453
 11
296.52997
 21
193.23453
  0
LINE
  8
_0-0__
  6
CONTINUOUS
 62
    3
 10
296.52998
 20
192.03451
 11
289.82999
 21
192.03451
  0
ARC
  8
_0-0__
  6
CONTINUOUS
 62
    3
 10
296.52998
 20
192.63452
 40
0.600006
 50
269.99998
 51
90.00001
  0
LINE
  8
_0-0__
  6
CONTINUOUS
 62
    3
 10
301.12988
 20
193.01205
 11
301.12988
 21
180.5346
  0
LINE
  8
_0-0__
  6
CONTINUOUS
 62
    3
 10
300.12988
 20
188.03451
 11
300.12988
 21
183.03451
  0
LINE
  8
_0-0__
  6
CONTINUOUS
 62
    3
 10
279.12988
 20
181.03451
 11
281.12988
 21
181.03451
  0
LINE
  8
_0-0__
  6
CONTINUOUS
 62
    3
 10
281.62988
 20
183.03451
 11
281.62988
 21
181.53451
  0
LINE
  8
_0-0__
  6
CONTINUOUS
 62
    3
 10
279.12988
 20
183.03451
 11
281.62988
 21
183.03451
  0
LINE
  8
_0-0__
  6
CONTINUOUS
 62
    3
 10
281.12988
 20
181.03451
 11
281.62988
 21
181.53451
  0
LINE
  8
_0-0__
  6
CONTINUOUS
 62
    3
 10
277.62988
 20
180.0346
 11
278.12988
 21
180.5346
  0
LINE
  8
_0-0__
  6
CONTINUOUS
 62
    3
 10
279.12988
 20
179.0346
 11
279.12988
 21
181.03427
  0
LINE
  8
_0-0__
  6
CONTINUOUS
 62
    3
 10
279.12988
 20
188.03451
 11
281.12988
 21
188.03451
  0
LINE
  8
_0-0__
  6
CONTINUOUS
 62
    3
 10
279.12988
 20
189.03451
 11
281.12988
 21
189.03451
  0
LINE
  8
_0-0__
  6
CONTINUOUS
 62
    3
 10
281.12988
 20
188.03451
 11
281.12988
 21
189.03451
  0
ARC
  8
_0-0__
  6
CONTINUOUS
 62
    3
 10
282.72998
 20
192.63452
 40
0.600006
 50
90.00002
 51
269.99998
  0
LINE
  8
_0-0__
  6
CONTINUOUS
 62
    3
 10
283.20406
 20
194.22865
 11
279.20407
 21
194.82875
  0
LINE
  8
_0-0__
  6
CONTINUOUS
 62
    3
 10
279.70397
 20
193.74249
 11
283.05575
 21
193.2398
  0
LINE
  8
_0-0__
  6
CONTINUOUS
 62
    3
 10
279.70409
 20
193.74276
 11
279.12995
 21
193.24838
  0
LINE
  8
_0-0__
  6
CONTINUOUS
 62
    3
 10
278.12988
 20
193.01205
 11
277.53125
 21
193.50223
  0
LINE
  8
_0-0__
  6
CONTINUOUS
 62
    3
 10
279.20409
 20
194.82894
 11
279.03122
 21
194.82465
  0
LINE
  8
_0-0__
  6
CONTINUOUS
 62
    3
 10
283.0559
 20
193.24007
 11
283.20409
 21
194.22881
  0
LINE
  8
_0-0__
  6
CONTINUOUS
 62
    3
 10
279.12988
 20
189.03451
 11
279.12988
 21
193.24814
  0
LINE
  8
_0-0__
  6
CONTINUOUS
 62
    3
 10
282.72998
 20
192.03451
 11
289.42996
 21
192.03451
  0
LINE
  8
_0-0__
  6
CONTINUOUS
 62
    3
 10
284.62999
 20
193.23453
 11
282.72998
 21
193.23453
  0
LINE
  8
_0-0__
  6
CONTINUOUS
 62
    3
 10
278.12988
 20
193.01205
 11
278.12988
 21
180.5346
  0
LINE
  8
_0-0__
  6
CONTINUOUS
 62
    3
 10
279.12988
 20
188.03451
 11
279.12988
 21
183.03451
  0
LINE
  8
_0-0__
  6
CONTINUOUS
 62
    3
 10
287.12988
 20
187.03451
 11
292.12988
 21
187.03451
  0
LINE
  8
_0-0__
  6
CONTINUOUS
 62
    3
 10
286.92998
 20
194.33452
 11
292.32997
 21
194.33452
  0
LINE
  8
_0-0__
  6
CONTINUOUS
 62
    3
 10
289.42999
 20
192.03448
 11
289.83001
 21
192.03444
  0
LINE
  8
_0-0__
  6
CONTINUOUS
 62
    3
 10
271.13004
 20
180.5346
 11
271.63004
 21
180.0346
  0
LINE
  8
_0-0__
  6
CONTINUOUS
 62
    3
 10
272.62999
 20
194.53451
 11
272.62999
 21
192.03451
  0
LINE
  8
_0-0__
  6
CONTINUOUS
 62
    3
 10
273.88004
 20
192.7662
 11
273.88004
 21
192.03451
  0
LINE
  8
_0-0__
  6
CONTINUOUS
 62
    3
 10
271.13004
 20
191.03451
 11
272.88004
 21
191.03451
  0
LINE
  8
_0-0__
  6
CONTINUOUS
 62
    3
 10
272.63004
 20
193.12509
 11
272.63004
 21
192.03451
  0
ARC
  8
_0-0__
  6
CONTINUOUS
 62
    3
 10
272.88004
 20
192.03451
 40
1
 50
270
 51
359.99998
  0
LINE
  8
_0-0__
  6
CONTINUOUS
 62
    3
 10
273.03133
 20
193.61532
 11
272.62996
 21
193.12509
  0
LINE
  8
_0-0__
  6
CONTINUOUS
 62
    3
 10
272.62999
 20
192.03451
 11
269.87999
 21
192.03451
  0
LINE
  8
_0-0__
  6
CONTINUOUS
 62
    3
 10
270.13004
 20
192.03451
 11
272.63004
 21
192.03451
  0
LINE
  8
_0-0__
  6
CONTINUOUS
 62
    3
 10
271.13004
 20
191.03451
 11
271.13004
 21
180.5346
  0
LINE
  8
_0-0__
  6
CONTINUOUS
 62
    3
 10
270.13004
 20
192.03451
 11
270.13004
 21
179.0346
  0
LINE
  8
_0-0__
  6
CONTINUOUS
 62
    3
 10
279.12988
 20
179.0346
 11
270.13006
 21
179.0346
  0
LINE
  8
_0-0__
  6
CONTINUOUS
 62
    3
 10
271.63004
 20
180.0346
 11
277.62988
 21
180.0346
  0
LINE
  8
_0-0__
  6
CONTINUOUS
 62
    3
 10
273.03126
 20
193.61517
 11
279.03101
 21
194.82437
  0
LINE
  8
_0-0__
  6
CONTINUOUS
 62
    3
 10
277.53124
 20
193.50223
 11
273.87985
 21
192.76611
  0
ARC
  8
_0-0__
  6
CONTINUOUS
 62
    3
 10
293.32999
 20
196.33452
 40
1
 50
90.00002
 51
180
  0
LINE
  8
_0-0__
  6
CONTINUOUS
 62
    3
 10
296.62593
 20
197.33452
 11
293.32999
 21
197.33452
  0
ARC
  8
_0-0__
  6
CONTINUOUS
 62
    3
 10
285.92998
 20
196.33452
 40
1
 50
0.000037
 51
90.00002
  0
LINE
  8
_0-0__
  6
CONTINUOUS
 62
    3
 10
282.63405
 20
197.33452
 11
285.92996
 21
197.33452
  0
LINE
  8
_0-0__
  6
CONTINUOUS
 62
    3
 10
289.82998
 20
253.53461
 11
289.42999
 21
253.5346
  0
LINE
  8
_0-0__
  6
CONTINUOUS
 62
    3
 10
274.62593
 20
197.33452
 11
272.87999
 21
197.33452
  0
ARC
  8
_0-0__
  6
CONTINUOUS
 62
    3
 10
272.87999
 20
198.33452
 40
1
 50
180
 51
269.99998
  0
LINE
  8
_0-0__
  6
CONTINUOUS
 62
    3
 10
271.87999
 20
240.53463
 11
271.87999
 21
236.53463
  0
ARC
  8
_0-0__
  6
CONTINUOUS
 62
    3
 10
272.87999
 20
250.03463
 40
1
 50
90.00002
 51
180
  0
ARC
  8
_0-0__
  6
CONTINUOUS
 62
    3
 10
273.17998
 20
254.53463
 40
1
 50
180
 51
269.99998
  0
LINE
  8
_0-0__
  6
CONTINUOUS
 62
    3
 10
271.87999
 20
250.03463
 11
271.87999
 21
240.53463
  0
LINE
  8
_0-0__
  6
CONTINUOUS
 62
    3
 10
273.17998
 20
253.53463
 11
289.42998
 21
253.53463
  0
LINE
  8
_0-0__
  6
CONTINUOUS
 62
    3
 10
273.12999
 20
195.03451
 11
284.62999
 21
195.03451
  0
LINE
  8
_0-0__
  6
CONTINUOUS
 62
    3
 10
282.63405
 20
197.33452
 11
274.62593
 21
197.33452
  0
LINE
  8
_0-0__
  6
CONTINUOUS
 62
    3
 10
272.17998
 20
276.53463
 11
274.12997
 21
276.53463
  0
LINE
  8
_0-0__
  6
CONTINUOUS
 62
    3
 10
274.12999
 20
278.53463
 11
273.62999
 21
279.03463
  0
LINE
  8
_0-0__
  6
CONTINUOUS
 62
    3
 10
270.37999
 20
279.03463
 11
269.87999
 21
278.53463
  0
LINE
  8
_0-0__
  6
CONTINUOUS
 62
    3
 10
273.62999
 20
279.03463
 11
270.37999
 21
279.03463
  0
LINE
  8
_0-0__
  6
CONTINUOUS
 62
    3
 10
274.12999
 20
278.53463
 11
274.12999
 21
276.53463
  0
LINE
  8
_0-0__
  6
CONTINUOUS
 62
    3
 10
272.17998
 20
254.53463
 11
272.17998
 21
276.53463
  0
LINE
  8
_0-0__
  6
CONTINUOUS
 62
    3
 10
269.87999
 20
230.03466
 11
269.87999
 21
278.53463
  0
LINE
  8
_0-0__
  6
CONTINUOUS
 62
    3
 10
269.87999
 20
192.03451
 11
269.87999
 21
230.03466
  0
LINE
  8
_0-0__
  6
CONTINUOUS
 62
    3
 10
294.62999
 20
193.23453
 11
294.62999
 21
195.03451
  0
LINE
  8
_0-0__
  6
CONTINUOUS
 62
    3
 10
284.62999
 20
193.23453
 11
284.62999
 21
195.03451
  0
LINE
  8
_0-0__
  6
CONTINUOUS
 62
    3
 10
286.92998
 20
194.33452
 11
286.92998
 21
196.33452
  0
LINE
  8
_0-0__
  6
CONTINUOUS
 62
    3
 10
292.32999
 20
194.33452
 11
292.32999
 21
196.33452
  0
LINE
  8
_0-0__
  6
CONTINUOUS
 62
    3
 10
273.12999
 20
195.03451
 11
272.62999
 21
194.53451
  0
LINE
  8
_0-0__
  6
CONTINUOUS
 62
    3
 10
306.07994
 20
253.53463
 11
289.83
 21
253.53463
  0
LINE
  8
_0-0__
  6
CONTINUOUS
 62
    3
 10
306.12994
 20
195.03451
 11
294.62999
 21
195.03451
  0
LINE
  8
_0-0__
  6
CONTINUOUS
 62
    3
 10
306.37994
 20
251.03463
 11
272.88
 21
251.03463
  0
LINE
  8
_0-0__
  6
CONTINUOUS
 62
    3
 10
300.12988
 20
179.0346
 11
309.12988
 21
179.0346
  0
LINE
  8
_0-0__
  6
CONTINUOUS
 62
    3
 10
307.62988
 20
180.0346
 11
301.62988
 21
180.0346
  0
LINE
  8
_0-0__
  6
CONTINUOUS
 62
    3
 10
306.22861
 20
193.61517
 11
300.22858
 21
194.8244
  0
LINE
  8
_0-0__
  6
CONTINUOUS
 62
    3
 10
301.72865
 20
193.50198
 11
305.37979
 21
192.7659
  0
LINE
  8
_0-0__
  6
CONTINUOUS
 62
    3
 10
304.63405
 20
197.33452
 11
296.62593
 21
197.33452
  0
LINE
  8
_0-0__
  6
CONTINUOUS
 62
    3
 10
293.12988
 20
256.70178
 11
286.12988
 21
256.70178
  0
LINE
  8
_0-0__
  6
CONTINUOUS
 62
    3
 10
286.12988
 20
256.70178
 11
285.62988
 21
257.70178
  0
LINE
  8
_0-0__
  6
CONTINUOUS
 62
    3
 10
293.12988
 20
256.70178
 11
293.62988
 21
257.70178
  0
LINE
  8
_0-0__
  6
CONTINUOUS
 62
    3
 10
309.62988
 20
279.0346
 11
269.62988
 21
279.0346
  0
LINE
  8
_0-0__
  6
CONTINUOUS
 62
    3
 10
262.02988
 20
311.88241
 11
262.02988
 21
271.63459
  0
LINE
  8
_0-0__
  6
CONTINUOUS
 62
    3
 10
197.22987
 20
311.88241
 11
197.22987
 21
271.63459
  0
LINE
  8
_0-0__
  6
CONTINUOUS
 62
    3
 10
240.52987
 20
315.86397
 11
261.02987
 21
315.86397
  0
LINE
  8
_0-0__
  6
CONTINUOUS
 62
    3
 10
229.82988
 20
314.26397
 11
261.02987
 21
314.26397
  0
LINE
  8
_0-0__
  6
CONTINUOUS
 62
    3
 10
198.22988
 20
315.86397
 11
218.72988
 21
315.86397
  0
LINE
  8
_0-0__
  6
CONTINUOUS
 62
    3
 10
198.22988
 20
314.26397
 11
229.42988
 21
314.26397
  0
ARC
  8
_0-0__
  6
CONTINUOUS
 62
    3
 10
198.22988
 20
316.86397
 40
1
 50
180
 51
270
  0
ARC
  8
_0-0__
  6
CONTINUOUS
 62
    3
 10
198.22988
 20
313.26397
 40
1
 50
89.99999
 51
180
  0
LINE
  8
_0-0__
  6
CONTINUOUS
 62
    3
 10
197.22987
 20
313.26397
 11
197.22987
 21
311.88241
  0
LINE
  8
_0-0__
  6
CONTINUOUS
 62
    3
 10
240.52987
 20
315.86397
 11
218.72988
 21
315.86397
  0
LINE
  8
_0-0__
  6
CONTINUOUS
 62
    3
 10
229.82988
 20
314.26397
 11
229.42988
 21
314.26397
  0
ARC
  8
_0-0__
  6
CONTINUOUS
 62
    3
 10
261.02987
 20
316.86397
 40
1
 50
270
 51
0.000003
  0
ARC
  8
_0-0__
  6
CONTINUOUS
 62
    3
 10
261.02987
 20
313.26397
 40
1
 50
0.000003
 51
90.00001
  0
LINE
  8
_0-0__
  6
CONTINUOUS
 62
    3
 10
262.02988
 20
313.26397
 11
262.02988
 21
311.88241
  0
LINE
  8
_0-0__
  6
CONTINUOUS
 62
    3
 10
242.29947
 20
281.57349
 11
241.52997
 21
281.4378
  0
LINE
  8
_0-0__
  6
CONTINUOUS
 62
    3
 10
233.52988
 20
270.63459
 11
243.87988
 21
270.63459
  0
LINE
  8
_0-0__
  6
CONTINUOUS
 62
    3
 10
242.02988
 20
274.83459
 11
243.87988
 21
274.83459
  0
LINE
  8
_0-0__
  6
CONTINUOUS
 62
    3
 10
229.62988
 20
269.0346
 11
248.22987
 21
269.0346
  0
LINE
  8
_0-0__
  6
CONTINUOUS
 62
    3
 10
217.72977
 20
281.4378
 11
216.96027
 21
281.57349
  0
LINE
  8
_0-0__
  6
CONTINUOUS
 62
    3
 10
229.62988
 20
269.0346
 11
211.02988
 21
269.0346
  0
LINE
  8
_0-0__
  6
CONTINUOUS
 62
    3
 10
217.22987
 20
274.83459
 11
215.37988
 21
274.83459
  0
LINE
  8
_0-0__
  6
CONTINUOUS
 62
    3
 10
225.72987
 20
270.63459
 11
215.37988
 21
270.63459
  0
LINE
  8
_0-0__
  6
CENTER2
 62
    3
 10
204.12988
 20
272.63449
 11
211.62988
 21
272.63467
  0
LINE
  8
_0-0__
  6
CONTINUOUS
 62
    3
 10
210.12988
 20
273.73114
 11
203.88723
 21
270.63459
  0
LINE
  8
_0-0__
  6
CONTINUOUS
 62
    3
 10
196.12988
 20
269.03459
 11
211.02987
 21
269.03459
  0
ARC
  8
_0-0__
  6
CONTINUOUS
 62
    3
 10
198.22988
 20
271.63459
 40
1
 50
180
 51
270
  0
LINE
  8
_0-0__
  6
CONTINUOUS
 62
    3
 10
195.62988
 20
269.53459
 11
196.12988
 21
269.03459
  0
LINE
  8
_0-0__
  6
CONTINUOUS
 62
    3
 10
198.22988
 20
270.63459
 11
203.88723
 21
270.63459
  0
LINE
  8
_0-0__
  6
CENTER2
 62
    3
 10
208.12978
 20
276.63459
 11
208.12996
 21
269.13459
  0
LINE
  8
_0-0__
  6
CONTINUOUS
 62
    3
 10
211.87988
 20
277.53459
 11
211.87988
 21
273.73114
  0
LINE
  8
_0-0__
  6
CONTINUOUS
 62
    3
 10
213.37988
 20
276.53459
 11
213.37988
 21
270.83459
  0
LINE
  8
_0-0__
  6
CONTINUOUS
 62
    3
 10
214.37988
 20
272.0346
 11
214.37987
 21
275.33457
  0
LINE
  8
_0-0__
  6
CONTINUOUS
 62
    3
 10
216.96028
 20
281.5735
 11
216.01006
 21
278.96269
  0
LINE
  8
_0-0__
  6
CONTINUOUS
 62
    3
 10
216.01001
 20
278.9627
 11
216.12636
 21
278.43809
  0
LINE
  8
_0-0__
  6
CONTINUOUS
 62
    3
 10
214.87987
 20
275.83459
 11
214.37987
 21
275.33459
  0
ARC
  8
_0-0__
  6
CONTINUOUS
 62
    3
 10
212.87988
 20
277.53459
 40
1
 50
89.99999
 51
180
  0
ARC
  8
_0-0__
  6
CONTINUOUS
 62
    3
 10
215.62988
 20
277.53459
 40
1
 50
270
 51
90.00001
  0
LINE
  8
_0-0__
  6
CONTINUOUS
 62
    3
 10
215.62988
 20
278.53459
 11
212.87988
 21
278.53459
  0
LINE
  8
_0-0__
  6
CONTINUOUS
 62
    3
 10
215.62988
 20
276.53459
 11
213.37988
 21
276.53459
  0
LINE
  8
_0-0__
  6
CONTINUOUS
 62
    3
 10
216.72987
 20
275.83459
 11
214.87987
 21
275.83459
  0
LINE
  8
_0-0__
  6
CONTINUOUS
 62
    3
 10
216.72987
 20
275.83459
 11
216.72987
 21
277.83459
  0
LINE
  8
_0-0__
  6
CONTINUOUS
 62
    3
 10
216.72985
 20
277.83457
 11
216.12635
 21
278.43807
  0
LINE
  8
_0-0__
  6
CONTINUOUS
 62
    3
 10
210.12988
 20
273.73114
 11
211.87988
 21
273.73114
  0
LINE
  8
_0-0__
  6
CONTINUOUS
 62
    3
 10
211.02987
 20
270.53459
 11
211.02987
 21
269.03459
  0
LINE
  8
_0-0__
  6
CONTINUOUS
 62
    3
 10
211.02987
 20
269.0346
 11
211.02987
 21
269.93458
  0
LINE
  8
_0-0__
  6
CONTINUOUS
 62
    3
 10
214.12988
 20
272.0346
 11
213.62988
 21
271.5346
  0
LINE
  8
_0-0__
  6
CONTINUOUS
 62
    3
 10
211.52987
 20
270.4346
 11
211.02987
 21
269.9346
  0
LINE
  8
_0-0__
  6
CONTINUOUS
 62
    3
 10
213.07988
 20
270.53459
 11
213.37988
 21
270.83459
  0
LINE
  8
_0-0__
  6
CONTINUOUS
 62
    3
 10
213.07988
 20
270.53459
 11
211.02987
 21
270.53459
  0
LINE
  8
_0-0__
  6
CONTINUOUS
 62
    3
 10
213.62988
 20
270.4346
 11
211.52987
 21
270.4346
  0
LINE
  8
_0-0__
  6
CONTINUOUS
 62
    3
 10
213.62988
 20
270.4346
 11
213.62988
 21
271.53459
  0
LINE
  8
_0-0__
  6
CONTINUOUS
 62
    3
 10
214.37988
 20
272.0346
 11
214.12988
 21
272.0346
  0
LINE
  8
_0-0__
  6
CONTINUOUS
 62
    3
 10
215.37988
 20
270.63459
 11
215.37988
 21
274.83457
  0
LINE
  8
_0-0__
  6
CONTINUOUS
 62
    3
 10
233.52988
 20
270.63459
 11
225.72987
 21
270.63459
  0
LINE
  8
_0-0__
  6
CONTINUOUS
 62
    3
 10
217.22987
 20
274.83459
 11
217.72987
 21
275.33459
  0
LINE
  8
_0-0__
  6
CONTINUOUS
 62
    3
 10
217.72987
 20
275.33459
 11
217.72987
 21
281.4378
  0
LINE
  8
_0-0__
  6
CONTINUOUS
 62
    3
 10
241.52988
 20
275.33459
 11
242.02988
 21
274.83459
  0
LINE
  8
_0-0__
  6
CONTINUOUS
 62
    3
 10
241.52988
 20
275.33459
 11
241.52988
 21
281.4378
  0
LINE
  8
_0-0__
  6
CONTINUOUS
 62
    3
 10
249.12988
 20
273.73114
 11
255.37252
 21
270.63459
  0
LINE
  8
_0-0__
  6
CONTINUOUS
 62
    3
 10
248.22988
 20
269.03459
 11
263.12988
 21
269.03459
  0
LINE
  8
_0-0__
  6
CENTER2
 62
    3
 10
251.12978
 20
276.63459
 11
251.12996
 21
269.13459
  0
LINE
  8
_0-0__
  6
CONTINUOUS
 62
    3
 10
245.87988
 20
276.53459
 11
245.87988
 21
270.83459
  0
LINE
  8
_0-0__
  6
CONTINUOUS
 62
    3
 10
247.37988
 20
277.53459
 11
247.37988
 21
273.73114
  0
LINE
  8
_0-0__
  6
CONTINUOUS
 62
    3
 10
244.87988
 20
272.0346
 11
244.87987
 21
275.33458
  0
LINE
  8
_0-0__
  6
CONTINUOUS
 62
    3
 10
242.29947
 20
281.5735
 11
243.24968
 21
278.96269
  0
LINE
  8
_0-0__
  6
CONTINUOUS
 62
    3
 10
244.87987
 20
275.33459
 11
244.37987
 21
275.83459
  0
LINE
  8
_0-0__
  6
CONTINUOUS
 62
    3
 10
243.13338
 20
278.43809
 11
243.24973
 21
278.9627
  0
ARC
  8
_0-0__
  6
CONTINUOUS
 62
    3
 10
243.62988
 20
277.53459
 40
1
 50
89.99999
 51
270
  0
ARC
  8
_0-0__
  6
CONTINUOUS
 62
    3
 10
246.37988
 20
277.53459
 40
1
 50
0.000003
 51
90.00001
  0
LINE
  8
_0-0__
  6
CONTINUOUS
 62
    3
 10
243.62988
 20
276.53459
 11
245.87988
 21
276.53459
  0
LINE
  8
_0-0__
  6
CONTINUOUS
 62
    3
 10
243.62988
 20
278.53459
 11
246.37988
 21
278.53459
  0
LINE
  8
_0-0__
  6
CONTINUOUS
 62
    3
 10
242.5299
 20
277.83458
 11
243.1334
 21
278.43807
  0
LINE
  8
_0-0__
  6
CONTINUOUS
 62
    3
 10
242.52988
 20
275.83459
 11
242.52988
 21
277.83459
  0
LINE
  8
_0-0__
  6
CONTINUOUS
 62
    3
 10
242.52988
 20
275.83459
 11
244.37987
 21
275.83459
  0
LINE
  8
_0-0__
  6
CENTER2
 62
    3
 10
247.12988
 20
272.63449
 11
254.62988
 21
272.63467
  0
LINE
  8
_0-0__
  6
CONTINUOUS
 62
    3
 10
247.37988
 20
273.73114
 11
249.12988
 21
273.73114
  0
LINE
  8
_0-0__
  6
CONTINUOUS
 62
    3
 10
248.22988
 20
270.53459
 11
248.22988
 21
269.03459
  0
LINE
  8
_0-0__
  6
CONTINUOUS
 62
    3
 10
248.22988
 20
269.0346
 11
248.22988
 21
269.93458
  0
LINE
  8
_0-0__
  6
CONTINUOUS
 62
    3
 10
248.22988
 20
269.9346
 11
247.72988
 21
270.4346
  0
LINE
  8
_0-0__
  6
CONTINUOUS
 62
    3
 10
245.62988
 20
271.5346
 11
245.12988
 21
272.0346
  0
LINE
  8
_0-0__
  6
CONTINUOUS
 62
    3
 10
245.87987
 20
270.83459
 11
246.17987
 21
270.53459
  0
LINE
  8
_0-0__
  6
CONTINUOUS
 62
    3
 10
246.17987
 20
270.53459
 11
248.22988
 21
270.53459
  0
LINE
  8
_0-0__
  6
CONTINUOUS
 62
    3
 10
243.87988
 20
270.63459
 11
243.87988
 21
274.83458
  0
LINE
  8
_0-0__
  6
CONTINUOUS
 62
    3
 10
244.87988
 20
272.0346
 11
245.12988
 21
272.0346
  0
LINE
  8
_0-0__
  6
CONTINUOUS
 62
    3
 10
245.62988
 20
270.4346
 11
245.62988
 21
271.53459
  0
LINE
  8
_0-0__
  6
CONTINUOUS
 62
    3
 10
245.62988
 20
270.4346
 11
247.72988
 21
270.4346
  0
ARC
  8
_0-0__
  6
CONTINUOUS
 62
    3
 10
261.02987
 20
271.63459
 40
1
 50
270
 51
0.000003
  0
LINE
  8
_0-0__
  6
CONTINUOUS
 62
    3
 10
255.37252
 20
270.63459
 11
261.02987
 21
270.63459
  0
LINE
  8
_0-0__
  6
CONTINUOUS
 62
    3
 10
263.12988
 20
269.03459
 11
263.62988
 21
269.53459
  0
LINE
  8
_0-0__
  6
CONTINUOUS
 62
    3
 10
195.62988
 20
320.03576
 11
195.62988
 21
269.53459
  0
LINE
  8
_0-0__
  6
CONTINUOUS
 62
    3
 10
269.62988
 20
279.0346
 11
269.62988
 21
162.57137
  0
LINE
  8
_0-0__
  6
CONTINUOUS
 62
    3
 10
309.62988
 20
279.0346
 11
309.62988
 21
162.57137
  0
LINE
  8
_0-0__
  6
CONTINUOUS
 62
    3
 10
300.12988
 20
162.57137
 11
300.12988
 21
179.0346
  0
LINE
  8
_0-0__
  6
CONTINUOUS
 62
    3
 10
292.12988
 20
162.57137
 11
292.12988
 21
187.03451
  0
LINE
  8
_0-0__
  6
CONTINUOUS
 62
    3
 10
287.12988
 20
162.57137
 11
287.12988
 21
187.03451
  0
LINE
  8
_0-0__
  6
CONTINUOUS
 62
    3
 10
279.12988
 20
162.57137
 11
279.12988
 21
179.0346
  0
LINE
  8
_0-0__
  6
CONTINUOUS
 62
    3
 10
281.65182
 20
22.365743
 11
297.25182
 21
22.365743
  0
LINE
  8
_0-0__
  6
CONTINUOUS
 62
    3
 10
269.62988
 20
154.81829
 11
269.62988
 21
45.872033
  0
LINE
  8
_0-0__
  6
CONTINUOUS
 62
    3
 10
287.12988
 20
154.81829
 11
287.12988
 21
137.87212
  0
LINE
  8
_0-0__
  6
CONTINUOUS
 62
    3
 10
292.12988
 20
154.81829
 11
292.12988
 21
137.87212
  0
LINE
  8
_0-0__
  6
CONTINUOUS
 62
    3
 10
300.12988
 20
154.81829
 11
300.12988
 21
145.87203
  0
LINE
  8
_0-0__
  6
CONTINUOUS
 62
    3
 10
279.12988
 20
154.81829
 11
279.12988
 21
145.87203
  0
LINE
  8
_0-0__
  6
CONTINUOUS
 62
    3
 10
309.62988
 20
154.81829
 11
309.62988
 21
45.872033
  0
LINE
  8
_0-0__
  6
CONTINUOUS
 62
    3
 10
281.65182
 20
45.872033
 11
297.25182
 21
22.365743
  0
LINE
  8
_0-0__
  6
CONTINUOUS
 62
    3
 10
281.65182
 20
22.365743
 11
297.25182
 21
45.872033
  0
LINE
  8
_0-0__
  6
CONTINUOUS
 62
    3
 10
308.87994
 20
45.872003
 11
309.37994
 21
46.372003
  0
LINE
  8
_0-0__
  6
CONTINUOUS
 62
    3
 10
307.07994
 20
48.372003
 11
305.12994
 21
48.372003
  0
LINE
  8
_0-0__
  6
CONTINUOUS
 62
    3
 10
305.12994
 20
46.372003
 11
305.12994
 21
48.372003
  0
LINE
  8
_0-0__
  6
CONTINUOUS
 62
    3
 10
305.12994
 20
46.372003
 11
305.62994
 21
45.872003
  0
LINE
  8
_0-0__
  6
CONTINUOUS
 62
    3
 10
305.62994
 20
45.872003
 11
308.87994
 21
45.872003
  0
ARC
  8
_0-0__
  6
CONTINUOUS
 62
    3
 10
306.37995
 20
74.872003
 40
1
 50
269.99998
 51
359.99995
  0
ARC
  8
_0-0__
  6
CONTINUOUS
 62
    3
 10
306.07994
 20
70.372003
 40
1
 50
359.99997
 51
90.00001
  0
LINE
  8
_0-0__
  6
CONTINUOUS
 62
    3
 10
307.37995
 20
84.372003
 11
307.37995
 21
74.872003
  0
LINE
  8
_0-0__
  6
CONTINUOUS
 62
    3
 10
307.07994
 20
70.372003
 11
307.07994
 21
48.372003
  0
LINE
  8
_0-0__
  6
CONTINUOUS
 62
    3
 10
289.82998
 20
71.372023
 11
289.43
 21
71.372043
  0
LINE
  8
_0-0__
  6
CONTINUOUS
 62
    3
 10
274.12999
 20
46.372003
 11
274.12999
 21
48.372003
  0
LINE
  8
_0-0__
  6
CONTINUOUS
 62
    3
 10
272.17998
 20
48.372003
 11
274.12997
 21
48.372003
  0
LINE
  8
_0-0__
  6
CONTINUOUS
 62
    3
 10
273.62999
 20
45.872003
 11
274.12999
 21
46.372003
  0
LINE
  8
_0-0__
  6
CONTINUOUS
 62
    3
 10
269.87999
 20
46.372003
 11
270.37999
 21
45.872003
  0
LINE
  8
_0-0__
  6
CONTINUOUS
 62
    3
 10
273.62999
 20
45.872003
 11
270.37999
 21
45.872003
  0
ARC
  8
_0-0__
  6
CONTINUOUS
 62
    3
 10
272.87999
 20
74.872003
 40
1
 50
180
 51
269.99997
  0
ARC
  8
_0-0__
  6
CONTINUOUS
 62
    3
 10
273.17998
 20
70.372003
 40
1
 50
90.00001
 51
180
  0
LINE
  8
_0-0__
  6
CONTINUOUS
 62
    3
 10
271.87999
 20
74.872003
 11
271.87999
 21
84.372003
  0
LINE
  8
_0-0__
  6
CONTINUOUS
 62
    3
 10
272.17998
 20
70.372003
 11
272.17998
 21
48.372003
  0
LINE
  8
_0-0__
  6
CONTINUOUS
 62
    3
 10
273.17998
 20
71.372003
 11
289.42998
 21
71.372003
  0
LINE
  8
_0-0__
  6
CONTINUOUS
 62
    3
 10
306.07994
 20
71.372003
 11
289.83
 21
71.372003
  0
LINE
  8
_0-0__
  6
CONTINUOUS
 62
    3
 10
306.37995
 20
73.872003
 11
272.88001
 21
73.872003
  0
LINE
  8
_0-0__
  6
CONTINUOUS
 62
    3
 10
307.37995
 20
88.372003
 11
307.37995
 21
116.87209
  0
LINE
  8
_0-0__
  6
CONTINUOUS
 62
    3
 10
307.37995
 20
116.8721
 11
307.37995
 21
126.5721
  0
LINE
  8
_0-0__
  6
CONTINUOUS
 62
    3
 10
306.37995
 20
127.57212
 11
304.63405
 21
127.57212
  0
LINE
  8
_0-0__
  6
CONTINUOUS
 62
    3
 10
306.22873
 20
131.29141
 11
306.62988
 21
131.78154
  0
LINE
  8
_0-0__
  6
CONTINUOUS
 62
    3
 10
306.12995
 20
129.87212
 11
306.62995
 21
130.37212
  0
LINE
  8
_0-0__
  6
CONTINUOUS
 62
    3
 10
308.12988
 20
133.87212
 11
306.37988
 21
133.87212
  0
ARC
  8
_0-0__
  6
CONTINUOUS
 62
    3
 10
306.37988
 20
132.87212
 40
1
 50
89.99999
 51
179.99998
  0
LINE
  8
_0-0__
  6
CONTINUOUS
 62
    3
 10
306.62995
 20
130.37212
 11
306.62995
 21
132.87212
  0
LINE
  8
_0-0__
  6
CONTINUOUS
 62
    3
 10
305.37988
 20
132.14043
 11
305.37988
 21
132.87212
  0
LINE
  8
_0-0__
  6
CONTINUOUS
 62
    3
 10
306.62988
 20
131.78154
 11
306.62988
 21
132.87212
  0
LINE
  8
_0-0__
  6
CONTINUOUS
 62
    3
 10
306.62995
 20
132.87212
 11
309.37995
 21
132.87212
  0
LINE
  8
_0-0__
  6
CONTINUOUS
 62
    3
 10
306.62988
 20
132.87212
 11
309.37988
 21
132.87212
  0
LINE
  8
_0-0__
  6
CONTINUOUS
 62
    3
 10
309.12988
 20
132.87212
 11
306.62988
 21
132.87212
  0
LINE
  8
_0-0__
  6
CONTINUOUS
 62
    3
 10
308.12988
 20
144.37203
 11
307.62988
 21
144.87203
  0
LINE
  8
_0-0__
  6
CONTINUOUS
 62
    3
 10
308.12988
 20
133.87212
 11
308.12988
 21
144.37203
  0
LINE
  8
_0-0__
  6
CONTINUOUS
 62
    3
 10
309.12988
 20
132.87212
 11
309.12988
 21
145.87203
  0
LINE
  8
_0-0__
  6
CONTINUOUS
 62
    3
 10
309.37995
 20
116.8721
 11
309.37995
 21
132.87212
  0
ARC
  8
_0-0__
  6
CONTINUOUS
 62
    3
 10
306.37995
 20
126.57212
 40
1
 50
359.99997
 51
90.00001
  0
LINE
  8
_0-0__
  6
CONTINUOUS
 62
    3
 10
296.05563
 20
130.67796
 11
300.05554
 21
130.07789
  0
LINE
  8
_0-0__
  6
CONTINUOUS
 62
    3
 10
299.55585
 20
131.16402
 11
296.20393
 21
131.66671
  0
LINE
  8
_0-0__
  6
CONTINUOUS
 62
    3
 10
299.55588
 20
131.16376
 11
300.12988
 21
131.65825
  0
LINE
  8
_0-0__
  6
CONTINUOUS
 62
    3
 10
301.12977
 20
131.89458
 11
301.72875
 21
131.40435
  0
LINE
  8
_0-0__
  6
CONTINUOUS
 62
    3
 10
300.0559
 20
130.07771
 11
300.22875
 21
130.08208
  0
LINE
  8
_0-0__
  6
CONTINUOUS
 62
    3
 10
296.20409
 20
131.66652
 11
296.0559
 21
130.67779
  0
LINE
  8
_0-0__
  6
CONTINUOUS
 62
    3
 10
300.12988
 20
136.87212
 11
298.12988
 21
136.87212
  0
LINE
  8
_0-0__
  6
CONTINUOUS
 62
    3
 10
300.12988
 20
135.87212
 11
298.12988
 21
135.87212
  0
LINE
  8
_0-0__
  6
CONTINUOUS
 62
    3
 10
298.12988
 20
136.87212
 11
298.12988
 21
135.87212
  0
LINE
  8
_0-0__
  6
CONTINUOUS
 62
    3
 10
300.12988
 20
135.87212
 11
300.12988
 21
131.6585
  0
LINE
  8
_0-0__
  6
CONTINUOUS
 62
    3
 10
294.63
 20
131.67211
 11
294.63
 21
129.87212
  0
LINE
  8
_0-0__
  6
CONTINUOUS
 62
    3
 10
292.32999
 20
130.57212
 11
292.32999
 21
128.57212
  0
ARC
  8
_0-0__
  6
CONTINUOUS
 62
    3
 10
293.32999
 20
128.57212
 40
1
 50
180
 51
269.99997
  0
LINE
  8
_0-0__
  6
CONTINUOUS
 62
    3
 10
294.63
 20
131.67211
 11
296.52997
 21
131.67211
  0
LINE
  8
_0-0__
  6
CONTINUOUS
 62
    3
 10
296.52999
 20
132.87212
 11
289.82999
 21
132.87212
  0
LINE
  8
_0-0__
  6
CONTINUOUS
 62
    3
 10
296.62594
 20
127.57212
 11
293.32999
 21
127.57212
  0
ARC
  8
_0-0__
  6
CONTINUOUS
 62
    3
 10
296.52999
 20
132.27211
 40
0.600006
 50
269.99999
 51
90.00001
  0
LINE
  8
_0-0__
  6
CONTINUOUS
 62
    3
 10
300.12988
 20
141.87212
 11
297.62988
 21
141.87212
  0
LINE
  8
_0-0__
  6
CONTINUOUS
 62
    3
 10
300.12988
 20
143.87212
 11
298.12988
 21
143.87212
  0
LINE
  8
_0-0__
  6
CONTINUOUS
 62
    3
 10
300.12988
 20
145.87203
 11
300.12988
 21
143.87236
  0
LINE
  8
_0-0__
  6
CONTINUOUS
 62
    3
 10
298.12988
 20
143.87212
 11
297.62988
 21
143.37212
  0
LINE
  8
_0-0__
  6
CONTINUOUS
 62
    3
 10
301.62988
 20
144.87203
 11
301.12988
 21
144.37203
  0
LINE
  8
_0-0__
  6
CONTINUOUS
 62
    3
 10
297.62988
 20
141.87212
 11
297.62988
 21
143.37212
  0
LINE
  8
_0-0__
  6
CONTINUOUS
 62
    3
 10
297.12997
 20
137.87212
 11
297.12997
 21
132.87212
  0
LINE
  8
_0-0__
  6
CONTINUOUS
 62
    3
 10
301.12988
 20
131.89458
 11
301.12988
 21
144.37203
  0
LINE
  8
_0-0__
  6
CONTINUOUS
 62
    3
 10
300.12988
 20
136.87212
 11
300.12988
 21
141.87212
  0
LINE
  8
_0-0__
  6
CONTINUOUS
 62
    3
 10
284.63
 20
131.67211
 11
284.63
 21
129.87212
  0
LINE
  8
_0-0__
  6
CONTINUOUS
 62
    3
 10
286.92998
 20
130.57212
 11
286.92998
 21
128.57212
  0
ARC
  8
_0-0__
  6
CONTINUOUS
 62
    3
 10
285.92998
 20
128.57212
 40
1
 50
269.99998
 51
359.99995
  0
LINE
  8
_0-0__
  6
CONTINUOUS
 62
    3
 10
283.20406
 20
130.67798
 11
279.20407
 21
130.07789
  0
LINE
  8
_0-0__
  6
CONTINUOUS
 62
    3
 10
279.70397
 20
131.16415
 11
283.05575
 21
131.66683
  0
LINE
  8
_0-0__
  6
CONTINUOUS
 62
    3
 10
279.12995
 20
131.65826
 11
279.70409
 21
131.16388
  0
LINE
  8
_0-0__
  6
CONTINUOUS
 62
    3
 10
277.53125
 20
131.4044
 11
278.12988
 21
131.89458
  0
LINE
  8
_0-0__
  6
CONTINUOUS
 62
    3
 10
279.03122
 20
130.08198
 11
279.20409
 21
130.07769
  0
LINE
  8
_0-0__
  6
CONTINUOUS
 62
    3
 10
283.20409
 20
130.67782
 11
283.0559
 21
131.66656
  0
LINE
  8
_0-0__
  6
CONTINUOUS
 62
    3
 10
279.12988
 20
136.87212
 11
281.12988
 21
136.87212
  0
LINE
  8
_0-0__
  6
CONTINUOUS
 62
    3
 10
279.12988
 20
135.87212
 11
281.12988
 21
135.87212
  0
LINE
  8
_0-0__
  6
CONTINUOUS
 62
    3
 10
281.12988
 20
135.87212
 11
281.12988
 21
136.87212
  0
ARC
  8
_0-0__
  6
CONTINUOUS
 62
    3
 10
282.72999
 20
132.27212
 40
0.600006
 50
90.00001
 51
269.99997
  0
LINE
  8
_0-0__
  6
CONTINUOUS
 62
    3
 10
279.12988
 20
135.87212
 11
279.12988
 21
131.6585
  0
LINE
  8
_0-0__
  6
CONTINUOUS
 62
    3
 10
282.72999
 20
132.87212
 11
289.42997
 21
132.87212
  0
LINE
  8
_0-0__
  6
CONTINUOUS
 62
    3
 10
284.63
 20
131.67211
 11
282.72999
 21
131.67211
  0
LINE
  8
_0-0__
  6
CONTINUOUS
 62
    3
 10
282.63405
 20
127.57212
 11
285.92997
 21
127.57212
  0
LINE
  8
_0-0__
  6
CONTINUOUS
 62
    3
 10
279.12988
 20
141.87212
 11
281.62988
 21
141.87212
  0
LINE
  8
_0-0__
  6
CONTINUOUS
 62
    3
 10
279.12988
 20
143.87212
 11
281.12988
 21
143.87212
  0
LINE
  8
_0-0__
  6
CONTINUOUS
 62
    3
 10
279.12988
 20
145.87203
 11
279.12988
 21
143.87237
  0
LINE
  8
_0-0__
  6
CONTINUOUS
 62
    3
 10
281.62988
 20
143.37212
 11
281.12988
 21
143.87212
  0
LINE
  8
_0-0__
  6
CONTINUOUS
 62
    3
 10
278.12988
 20
144.37203
 11
277.62988
 21
144.87203
  0
LINE
  8
_0-0__
  6
CONTINUOUS
 62
    3
 10
281.62988
 20
141.87212
 11
281.62988
 21
143.37212
  0
LINE
  8
_0-0__
  6
CONTINUOUS
 62
    3
 10
282.12997
 20
137.87212
 11
282.12997
 21
132.87212
  0
LINE
  8
_0-0__
  6
CONTINUOUS
 62
    3
 10
278.12988
 20
131.89458
 11
278.12988
 21
144.37203
  0
LINE
  8
_0-0__
  6
CONTINUOUS
 62
    3
 10
279.12988
 20
136.87212
 11
279.12988
 21
141.87212
  0
LINE
  8
_0-0__
  6
CONTINUOUS
 62
    3
 10
287.12988
 20
137.87212
 11
292.12988
 21
137.87212
  0
LINE
  8
_0-0__
  6
CONTINUOUS
 62
    3
 10
282.12997
 20
132.87212
 11
297.12997
 21
132.87212
  0
LINE
  8
_0-0__
  6
CONTINUOUS
 62
    3
 10
282.12997
 20
137.87212
 11
297.12997
 21
137.87212
  0
LINE
  8
_0-0__
  6
CONTINUOUS
 62
    3
 10
297.12997
 20
137.87212
 11
282.12997
 21
132.87212
  0
LINE
  8
_0-0__
  6
CONTINUOUS
 62
    3
 10
286.92998
 20
130.57212
 11
292.32998
 21
130.57212
  0
LINE
  8
_0-0__
  6
CONTINUOUS
 62
    3
 10
289.42999
 20
132.87215
 11
289.83002
 21
132.87219
  0
LINE
  8
_0-0__
  6
CONTINUOUS
 62
    3
 10
271.87999
 20
88.372003
 11
271.87999
 21
116.87209
  0
LINE
  8
_0-0__
  6
CONTINUOUS
 62
    3
 10
271.87999
 20
116.8721
 11
271.88
 21
126.5721
  0
LINE
  8
_0-0__
  6
CONTINUOUS
 62
    3
 10
274.62594
 20
127.57212
 11
272.88
 21
127.57212
  0
LINE
  8
_0-0__
  6
CONTINUOUS
 62
    3
 10
272.62996
 20
131.78155
 11
273.03133
 21
131.29132
  0
LINE
  8
_0-0__
  6
CONTINUOUS
 62
    3
 10
272.63
 20
130.37212
 11
273.13
 21
129.87212
  0
LINE
  8
_0-0__
  6
CONTINUOUS
 62
    3
 10
271.13004
 20
133.87212
 11
272.88004
 21
133.87212
  0
ARC
  8
_0-0__
  6
CONTINUOUS
 62
    3
 10
272.88004
 20
132.87212
 40
1
 50
0.000013
 51
89.99999
  0
LINE
  8
_0-0__
  6
CONTINUOUS
 62
    3
 10
272.63
 20
130.37212
 11
272.63
 21
132.87212
  0
LINE
  8
_0-0__
  6
CONTINUOUS
 62
    3
 10
273.88004
 20
132.14043
 11
273.88004
 21
132.87212
  0
LINE
  8
_0-0__
  6
CONTINUOUS
 62
    3
 10
272.63004
 20
131.78155
 11
272.63004
 21
132.87212
  0
LINE
  8
_0-0__
  6
CONTINUOUS
 62
    3
 10
272.63
 20
132.87212
 11
269.88
 21
132.87212
  0
LINE
  8
_0-0__
  6
CONTINUOUS
 62
    3
 10
270.13004
 20
132.87212
 11
272.63004
 21
132.87212
  0
LINE
  8
_0-0__
  6
CONTINUOUS
 62
    3
 10
271.63004
 20
144.87203
 11
271.13004
 21
144.37203
  0
LINE
  8
_0-0__
  6
CONTINUOUS
 62
    3
 10
271.13004
 20
133.87212
 11
271.13004
 21
144.37203
  0
LINE
  8
_0-0__
  6
CONTINUOUS
 62
    3
 10
270.13004
 20
132.87212
 11
270.13004
 21
145.87203
  0
LINE
  8
_0-0__
  6
CONTINUOUS
 62
    3
 10
269.88
 20
132.87212
 11
269.87999
 21
116.8721
  0
ARC
  8
_0-0__
  6
CONTINUOUS
 62
    3
 10
272.88
 20
126.57212
 40
1
 50
90.00001
 51
180
  0
LINE
  8
_0-0__
  6
CONTINUOUS
 62
    3
 10
273.13
 20
129.87212
 11
284.63
 21
129.87212
  0
LINE
  8
_0-0__
  6
CONTINUOUS
 62
    3
 10
279.12988
 20
145.87203
 11
270.13006
 21
145.87203
  0
LINE
  8
_0-0__
  6
CONTINUOUS
 62
    3
 10
271.63004
 20
144.87203
 11
277.62988
 21
144.87203
  0
LINE
  8
_0-0__
  6
CONTINUOUS
 62
    3
 10
273.03126
 20
131.29146
 11
279.03101
 21
130.08226
  0
LINE
  8
_0-0__
  6
CONTINUOUS
 62
    3
 10
277.53124
 20
131.40441
 11
273.87985
 21
132.14052
  0
LINE
  8
_0-0__
  6
CONTINUOUS
 62
    3
 10
282.63405
 20
127.57212
 11
274.62594
 21
127.57212
  0
LINE
  8
_0-0__
  6
CONTINUOUS
 62
    3
 10
306.12995
 20
129.87212
 11
294.63
 21
129.87212
  0
LINE
  8
_0-0__
  6
CONTINUOUS
 62
    3
 10
300.12988
 20
145.87203
 11
309.12988
 21
145.87203
  0
LINE
  8
_0-0__
  6
CONTINUOUS
 62
    3
 10
307.62988
 20
144.87203
 11
301.62988
 21
144.87203
  0
LINE
  8
_0-0__
  6
CONTINUOUS
 62
    3
 10
306.22861
 20
131.29146
 11
300.22858
 21
130.08223
  0
LINE
  8
_0-0__
  6
CONTINUOUS
 62
    3
 10
301.72865
 20
131.40465
 11
305.37979
 21
132.14074
  0
LINE
  8
_0-0__
  6
CONTINUOUS
 62
    3
 10
304.63405
 20
127.57212
 11
296.62594
 21
127.57212
  0
LINE
  8
_0-0__
  6
CONTINUOUS
 62
    3
 10
309.37994
 20
46.372003
 11
309.37995
 21
116.87209
  0
LINE
  8
_0-0__
  6
CONTINUOUS
 62
    3
 10
269.87999
 20
116.87209
 11
269.87999
 21
46.372003
  0
LINE
  8
_0-0__
  6
CONTINUOUS
 62
    3
 10
307.37995
 20
88.372003
 11
307.37995
 21
84.372003
  0
LINE
  8
_0-0__
  6
CONTINUOUS
 62
    3
 10
271.87999
 20
88.372003
 11
271.87999
 21
84.372003
  0
LINE
  8
_0-0__
  6
CONTINUOUS
 62
    3
 10
309.62988
 20
45.872033
 11
269.62988
 21
45.872033
  0
LINE
  8
_0-0__
  6
CONTINUOUS
 62
    3
 10
297.25182
 20
45.872033
 11
297.25182
 21
22.365743
  0
LINE
  8
_0-0__
  6
CONTINUOUS
 62
    3
 10
281.65182
 20
45.872033
 11
281.65182
 21
22.365743
  0
LINE
  8
_0-0__
  6
PHANTOM2
 62
    3
 10
264.62988
 20
10.872033
 11
194.62988
 21
10.872033
  0
LINE
  8
_0-0__
  6
PHANTOM2
 62
    3
 10
255.12988
 20
25.872033
 11
255.12988
 21
0.8720337
  0
LINE
  8
_0-0__
  6
PHANTOM2
 62
    3
 10
204.12988
 20
25.872033
 11
204.12988
 21
0.8720337
  0
LINE
  8
_0-0__
  6
PHANTOM2
 62
    3
 10
204.12988
 20
2.8720337
 11
255.12988
 21
2.8720337
  0
LINE
  8
_0-0__
  6
PHANTOM2
 62
    3
 10
204.12988
 20
0.8720337
 11
255.12988
 21
0.8720337
  0
LINE
  8
_0-0__
  6
DASHED3
 62
    3
 10
238.12988
 20
124.87203
 11
253.12988
 21
124.87203
  0
ARC
  8
_0-0__
  6
DASHED3
 62
    3
 10
240.32977
 20
126.17203
 40
1
 50
251.9767
 51
359.99997
  0
LINE
  8
_0-0__
  6
DASHED3
 62
    3
 10
240.12988
 20
126.87203
 11
238.72978
 21
126.87203
  0
LINE
  8
_0-0__
  6
DASHED3
 62
    3
 10
238.62975
 20
141.87203
 11
240.12975
 21
128.87202
  0
LINE
  8
_0-0__
  6
DASHED3
 62
    3
 10
253.62988
 20
145.87203
 11
238.62988
 21
145.87203
  0
ARC
  8
_0-0__
  6
DASHED3
 62
    3
 10
242.28937
 20
35.486393
 40
2
 50
94.57392
 51
169.99999
  0
ARC
  8
_0-0__
  6
DASHED3
 62
    3
 10
242.12988
 20
34.972033
 40
2
 50
94.57392
 51
169.99999
  0
LINE
  8
_0-0__
  6
DASHED3
 62
    3
 10
238.49445
 20
25.872033
 11
240.16026
 21
35.319333
  0
LINE
  8
_0-0__
  6
DASHED3
 62
    3
 10
204.12988
 20
25.872033
 11
255.12988
 21
25.872033
  0
LINE
  8
_0-0__
  6
DASHED3
 62
    3
 10
204.62988
 20
127.87203
 11
204.62988
 21
25.872033
  0
LINE
  8
_0-0__
  6
DASHED3
 62
    3
 10
206.42988
 20
45.172033
 11
206.42988
 21
36.072033
  0
ARC
  8
_0-0__
  6
DASHED3
 62
    3
 10
217.12988
 20
34.972033
 40
2
 50
10
 51
85.42607
  0
LINE
  8
_0-0__
  6
DASHED3
 62
    3
 10
218.73445
 20
25.872033
 11
217.12988
 21
34.972033
  0
LINE
  8
_0-0__
  6
DASHED3
 62
    3
 10
210.12988
 20
28.200343
 11
210.12988
 21
26.072143
  0
LINE
  8
_0-0__
  6
DASHED3
 62
    3
 10
205.12988
 20
25.572033
 11
209.62988
 21
25.572033
  0
LINE
  8
_0-0__
  6
DASHED3
 62
    3
 10
204.62988
 20
26.072033
 11
205.12988
 21
25.572033
  0
LINE
  8
_0-0__
  6
DASHED3
 62
    3
 10
209.62988
 20
25.572033
 11
210.12988
 21
26.072033
  0
ARC
  8
_0-0__
  6
DASHED3
 62
    3
 10
208.12988
 20
29.572033
 40
1.749992
 50
247.57782
 51
262.41818
  0
ARC
  8
_0-0__
  6
DASHED3
 62
    3
 10
208.12988
 20
29.572033
 40
1.75001
 50
97.58176
 51
112.42202
  0
LINE
  8
_0-0__
  6
DASHED3
 62
    3
 10
207.42988
 20
35.072033
 11
215.72988
 21
35.072033
  0
LINE
  8
_0-0__
  6
DASHED3
 62
    3
 10
207.17717
 20
31.220443
 11
207.46237
 21
31.189733
  0
LINE
  8
_0-0__
  6
DASHED3
 62
    3
 10
207.17718
 20
31.220433
 11
206.48133
 21
30.524733
  0
LINE
  8
_0-0__
  6
DASHED3
 62
    3
 10
206.51207
 20
30.239433
 11
206.48131
 21
30.524713
  0
LINE
  8
_0-0__
  6
DASHED3
 62
    3
 10
206.48137
 20
28.619333
 11
206.51204
 21
28.904643
  0
LINE
  8
_0-0__
  6
DASHED3
 62
    3
 10
206.48138
 20
28.619333
 11
207.17713
 21
27.923663
  0
LINE
  8
_0-0__
  6
DASHED3
 62
    3
 10
207.46237
 20
27.954343
 11
207.17717
 21
27.923633
  0
ARC
  8
_0-0__
  6
DASHED3
 62
    3
 10
208.12988
 20
29.572033
 40
1.750056
 50
157.58197
 51
202.41757
  0
ARC
  8
_0-0__
  6
DASHED3
 62
    3
 10
207.42988
 20
36.072033
 40
1
 50
180.00004
 51
270.00002
  0
ARC
  8
_0-0__
  6
DASHED3
 62
    3
 10
215.72988
 20
34.172033
 40
0.900009
 50
270.00002
 51
89.99998
  0
LINE
  8
_0-0__
  6
DASHED3
 62
    3
 10
210.62988
 20
33.272033
 11
215.72988
 21
33.272033
  0
LINE
  8
_0-0__
  6
DASHED3
 62
    3
 10
210.62988
 20
33.272033
 11
210.12988
 21
32.772033
  0
LINE
  8
_0-0__
  6
DASHED3
 62
    3
 10
209.46676
 20
30.701243
 11
210.12985
 21
30.943733
  0
LINE
  8
_0-0__
  6
DASHED3
 62
    3
 10
209.08107
 20
31.221343
 11
209.19704
 21
30.958913
  0
LINE
  8
_0-0__
  6
DASHED3
 62
    3
 10
209.08108
 20
31.221343
 11
208.13068
 21
31.475923
  0
LINE
  8
_0-0__
  6
DASHED3
 62
    3
 10
207.89897
 20
31.306743
 11
208.1307
 21
31.475933
  0
LINE
  8
_0-0__
  6
DASHED3
 62
    3
 10
208.13068
 20
27.668133
 11
207.89897
 21
27.837313
  0
LINE
  8
_0-0__
  6
DASHED3
 62
    3
 10
208.13068
 20
27.668133
 11
209.08107
 21
27.922743
  0
LINE
  8
_0-0__
  6
DASHED3
 62
    3
 10
209.19707
 20
28.185133
 11
209.08111
 21
27.922743
  0
LINE
  8
_0-0__
  6
DASHED3
 62
    3
 10
210.12987
 20
28.200343
 11
209.46675
 21
28.442843
  0
ARC
  8
_0-0__
  6
DASHED3
 62
    3
 10
208.12988
 20
29.572033
 40
1.749974
 50
307.57774
 51
319.81427
  0
ARC
  8
_0-0__
  6
DASHED3
 62
    3
 10
208.12988
 20
29.572033
 40
1.749975
 50
40.1861
 51
52.42226
  0
LINE
  8
_0-0__
  6
DASHED3
 62
    3
 10
210.12988
 20
32.772133
 11
210.12988
 21
30.943843
  0
LINE
  8
_0-0__
  6
DASHED3
 62
    3
 10
217.21959
 20
34.463263
 11
212.09
 21
34.873623
  0
LINE
  8
_0-0__
  6
DASHED3
 62
    3
 10
217.28937
 20
36.965663
 11
212.28937
 21
37.365663
  0
LINE
  8
_0-0__
  6
DASHED3
 62
    3
 10
217.12988
 20
34.972033
 11
212.12988
 21
35.372033
  0
LINE
  8
_0-0__
  6
DASHED3
 62
    3
 10
212.28937
 20
37.365663
 11
212.09
 21
34.873623
  0
LINE
  8
_0-0__
  6
DASHED3
 62
    3
 10
220.7653
 20
25.872033
 11
219.09949
 21
35.319333
  0
LINE
  8
_0-0__
  6
DASHED3
 62
    3
 10
223.12988
 20
143.37203
 11
222.62998
 21
143.87203
  0
LINE
  8
_0-0__
  6
DASHED3
 62
    3
 10
236.62977
 20
143.87203
 11
236.12988
 21
143.37203
  0
LINE
  8
_0-0__
  6
DASHED3
 62
    3
 10
204.62988
 20
144.87203
 11
204.62988
 21
127.87203
  0
LINE
  8
_0-0__
  6
DASHED3
 62
    3
 10
206.12988
 20
124.87203
 11
221.12988
 21
124.87203
  0
ARC
  8
_0-0__
  6
DASHED3
 62
    3
 10
218.92999
 20
126.17203
 40
1
 50
180.00004
 51
288.0233
  0
LINE
  8
_0-0__
  6
DASHED3
 62
    3
 10
204.63
 20
127.87202
 11
207.63001
 21
128.27201
  0
LINE
  8
_0-0__
  6
DASHED3
 62
    3
 10
207.62988
 20
128.27202
 11
207.62988
 21
127.07202
  0
LINE
  8
_0-0__
  6
DASHED3
 62
    3
 10
207.92523
 20
125.37847
 11
207.18703
 21
126.39597
  0
LINE
  8
_0-0__
  6
DASHED3
 62
    3
 10
207.26067
 20
126.81972
 11
207.1871
 21
126.39587
  0
LINE
  8
_0-0__
  6
DASHED3
 62
    3
 10
207.12988
 20
126.87203
 11
207.12988
 21
127.87203
  0
LINE
  8
_0-0__
  6
DASHED3
 62
    3
 10
206.12988
 20
126.87203
 11
206.12988
 21
124.87203
  0
LINE
  8
_0-0__
  6
DASHED3
 62
    3
 10
206.12988
 20
126.87203
 11
207.12988
 21
126.87203
  0
LINE
  8
_0-0__
  6
DASHED3
 62
    3
 10
204.62988
 20
127.87203
 11
207.12988
 21
127.87203
  0
LINE
  8
_0-0__
  6
DASHED3
 62
    3
 10
207.26068
 20
126.81972
 11
207.62999
 21
127.07203
  0
LINE
  8
_0-0__
  6
DASHED3
 62
    3
 10
207.92528
 20
125.37842
 11
208.82996
 21
125.67203
  0
ARC
  8
_0-0__
  6
DASHED3
 62
    3
 10
238.12988
 20
126.87203
 40
1
 50
89.99998
 51
180.00002
  0
ARC
  8
_0-0__
  6
DASHED3
 62
    3
 10
221.12988
 20
126.87203
 40
1
 50
0
 51
89.99998
  0
LINE
  8
_0-0__
  6
DASHED3
 62
    3
 10
219.12988
 20
128.87203
 11
219.12988
 21
126.87203
  0
LINE
  8
_0-0__
  6
DASHED3
 62
    3
 10
223.62988
 20
137.87203
 11
223.62988
 21
125.87203
  0
LINE
  8
_0-0__
  6
DASHED3
 62
    3
 10
235.62988
 20
137.87203
 11
235.62988
 21
125.87203
  0
LINE
  8
_0-0__
  6
DASHED3
 62
    3
 10
223.62988
 20
125.87203
 11
235.62988
 21
137.87203
  0
LINE
  8
_0-0__
  6
DASHED3
 62
    3
 10
222.12988
 20
125.87203
 11
229.42979
 21
125.87203
  0
LINE
  8
_0-0__
  6
DASHED3
 62
    3
 10
223.62988
 20
125.87203
 11
235.62988
 21
125.87203
  0
LINE
  8
_0-0__
  6
DASHED3
 62
    3
 10
219.62988
 20
127.87203
 11
219.62988
 21
126.87203
  0
LINE
  8
_0-0__
  6
DASHED3
 62
    3
 10
222.12988
 20
126.87203
 11
222.12988
 21
125.87203
  0
LINE
  8
_0-0__
  6
DASHED3
 62
    3
 10
219.62988
 20
127.87203
 11
221.12988
 21
127.87203
  0
LINE
  8
_0-0__
  6
DASHED3
 62
    3
 10
219.62988
 20
126.87203
 11
221.12988
 21
126.87203
  0
LINE
  8
_0-0__
  6
DASHED3
 62
    3
 10
221.12988
 20
126.87203
 11
221.12988
 21
124.87203
  0
ARC
  8
_0-0__
  6
DASHED3
 62
    3
 10
220.52998
 20
126.27202
 40
0.600031
 50
288.01893
 51
89.99998
  0
LINE
  8
_0-0__
  6
DASHED3
 62
    3
 10
220.71553
 20
125.70157
 11
219.23934
 21
125.22116
  0
LINE
  8
_0-0__
  6
DASHED3
 62
    3
 10
219.12988
 20
126.87203
 11
220.52998
 21
126.87203
  0
LINE
  8
_0-0__
  6
DASHED3
 62
    3
 10
229.82989
 20
125.87203
 11
237.12988
 21
125.87203
  0
LINE
  8
_0-0__
  6
DASHED3
 62
    3
 10
229.82986
 20
125.87212
 11
229.42978
 21
125.87206
  0
LINE
  8
_0-0__
  6
DASHED3
 62
    3
 10
239.62988
 20
126.87203
 11
239.62988
 21
127.87203
  0
LINE
  8
_0-0__
  6
DASHED3
 62
    3
 10
238.12988
 20
126.87203
 11
238.12988
 21
124.87203
  0
LINE
  8
_0-0__
  6
DASHED3
 62
    3
 10
238.12988
 20
126.87203
 11
239.62988
 21
126.87203
  0
LINE
  8
_0-0__
  6
DASHED3
 62
    3
 10
238.12988
 20
127.87203
 11
239.62988
 21
127.87203
  0
LINE
  8
_0-0__
  6
DASHED3
 62
    3
 10
237.12988
 20
126.87203
 11
237.12988
 21
125.87203
  0
ARC
  8
_0-0__
  6
DASHED3
 62
    3
 10
238.72978
 20
126.27202
 40
0.600031
 50
90.00002
 51
251.98107
  0
LINE
  8
_0-0__
  6
DASHED3
 62
    3
 10
238.54422
 20
125.70157
 11
240.02042
 21
125.22116
  0
LINE
  8
_0-0__
  6
DASHED3
 62
    3
 10
235.62988
 20
137.87203
 11
223.62988
 21
137.87203
  0
LINE
  8
_0-0__
  6
DASHED3
 62
    3
 10
220.63
 20
141.87203
 11
219.13
 21
128.87202
  0
LINE
  8
_0-0__
  6
DASHED3
 62
    3
 10
222.62998
 20
141.87203
 11
223.12988
 21
142.37203
  0
LINE
  8
_0-0__
  6
DASHED3
 62
    3
 10
220.62988
 20
141.87203
 11
222.62988
 21
141.87203
  0
LINE
  8
_0-0__
  6
DASHED3
 62
    3
 10
223.12988
 20
143.37203
 11
223.12988
 21
142.37203
  0
LINE
  8
_0-0__
  6
DASHED3
 62
    3
 10
236.12988
 20
142.37203
 11
236.62977
 21
141.87203
  0
LINE
  8
_0-0__
  6
DASHED3
 62
    3
 10
238.62988
 20
141.87203
 11
236.62988
 21
141.87203
  0
LINE
  8
_0-0__
  6
DASHED3
 62
    3
 10
236.12988
 20
143.37203
 11
236.12988
 21
142.37203
  0
LINE
  8
_0-0__
  6
DASHED3
 62
    3
 10
205.62988
 20
145.87203
 11
220.62988
 21
145.87203
  0
ARC
  8
_0-0__
  6
DASHED3
 62
    3
 10
205.62988
 20
144.87203
 40
1
 50
89.99386
 51
180.00002
  0
LINE
  8
_0-0__
  6
DASHED3
 62
    3
 10
220.62988
 20
143.87203
 11
222.62988
 21
143.87203
  0
LINE
  8
_0-0__
  6
DASHED3
 62
    3
 10
220.62988
 20
145.87203
 11
220.62988
 21
143.87203
  0
LINE
  8
_0-0__
  6
DASHED3
 62
    3
 10
238.62988
 20
143.87203
 11
236.62988
 21
143.87203
  0
LINE
  8
_0-0__
  6
DASHED3
 62
    3
 10
238.62988
 20
145.87203
 11
238.62988
 21
143.87203
  0
LINE
  8
_0-0__
  6
DASHED3
 62
    3
 10
254.62988
 20
127.87203
 11
254.62988
 21
25.872033
  0
LINE
  8
_0-0__
  6
DASHED3
 62
    3
 10
249.12978
 20
26.072143
 11
249.12978
 21
28.200423
  0
LINE
  8
_0-0__
  6
DASHED3
 62
    3
 10
240.5253
 20
25.872033
 11
242.12988
 21
34.972033
  0
LINE
  8
_0-0__
  6
DASHED3
 62
    3
 10
249.62988
 20
25.572033
 11
254.12988
 21
25.572033
  0
LINE
  8
_0-0__
  6
DASHED3
 62
    3
 10
249.12988
 20
26.072033
 11
249.62978
 21
25.572033
  0
LINE
  8
_0-0__
  6
DASHED3
 62
    3
 10
254.12988
 20
25.572033
 11
254.62988
 21
26.072033
  0
LINE
  8
_0-0__
  6
DASHED3
 62
    3
 10
250.17858
 20
27.922743
 11
251.12901
 21
27.668123
  0
LINE
  8
_0-0__
  6
DASHED3
 62
    3
 10
251.12897
 20
31.475933
 11
250.17861
 21
31.221343
  0
LINE
  8
_0-0__
  6
DASHED3
 62
    3
 10
243.52988
 20
35.072033
 11
251.82989
 21
35.072033
  0
ARC
  8
_0-0__
  6
DASHED3
 62
    3
 10
243.52988
 20
34.172033
 40
0.899994
 50
89.99998
 51
269.99312
  0
LINE
  8
_0-0__
  6
DASHED3
 62
    3
 10
243.52988
 20
33.272033
 11
248.62978
 21
33.272033
  0
LINE
  8
_0-0__
  6
DASHED3
 62
    3
 10
249.79288
 20
28.442833
 11
249.12979
 21
28.200343
  0
LINE
  8
_0-0__
  6
DASHED3
 62
    3
 10
250.17858
 20
27.922743
 11
250.06262
 21
28.185153
  0
LINE
  8
_0-0__
  6
DASHED3
 62
    3
 10
250.06258
 20
30.958933
 11
250.17855
 21
31.221343
  0
LINE
  8
_0-0__
  6
DASHED3
 62
    3
 10
249.12978
 20
30.943733
 11
249.79289
 21
30.701233
  0
LINE
  8
_0-0__
  6
DASHED3
 62
    3
 10
249.12978
 20
32.772033
 11
248.62978
 21
33.272033
  0
ARC
  8
_0-0__
  6
DASHED3
 62
    3
 10
251.12988
 20
29.572033
 40
1.750031
 50
127.58012
 51
139.81583
  0
ARC
  8
_0-0__
  6
DASHED3
 62
    3
 10
251.12988
 20
29.572033
 40
1.750035
 50
220.18379
 51
232.4195
  0
LINE
  8
_0-0__
  6
DASHED3
 62
    3
 10
249.12978
 20
30.943843
 11
249.12978
 21
32.772123
  0
LINE
  8
_0-0__
  6
DASHED3
 62
    3
 10
242.12988
 20
37.480023
 11
246.93051
 21
37.864073
  0
LINE
  8
_0-0__
  6
DASHED3
 62
    3
 10
241.97038
 20
36.965663
 11
246.97038
 21
37.365663
  0
LINE
  8
_0-0__
  6
DASHED3
 62
    3
 10
242.12988
 20
34.972033
 11
247.12988
 21
35.372033
  0
LINE
  8
_0-0__
  6
DASHED3
 62
    3
 10
246.93051
 20
37.864073
 11
247.12988
 21
35.372033
  0
LINE
  8
_0-0__
  6
DASHED3
 62
    3
 10
251.36068
 20
27.837333
 11
251.12902
 21
27.668133
  0
LINE
  8
_0-0__
  6
DASHED3
 62
    3
 10
252.08247
 20
27.923643
 11
251.79727
 21
27.954343
  0
LINE
  8
_0-0__
  6
DASHED3
 62
    3
 10
252.08248
 20
27.923643
 11
252.77835
 21
28.619343
  0
LINE
  8
_0-0__
  6
DASHED3
 62
    3
 10
252.74758
 20
28.904643
 11
252.77824
 21
28.619333
  0
LINE
  8
_0-0__
  6
DASHED3
 62
    3
 10
252.77828
 20
30.524733
 11
252.74752
 21
30.239433
  0
LINE
  8
_0-0__
  6
DASHED3
 62
    3
 10
252.77828
 20
30.524733
 11
252.08253
 21
31.220413
  0
LINE
  8
_0-0__
  6
DASHED3
 62
    3
 10
251.79727
 20
31.189733
 11
252.08247
 21
31.220443
  0
LINE
  8
_0-0__
  6
DASHED3
 62
    3
 10
251.12897
 20
31.475933
 11
251.36066
 21
31.306693
  0
ARC
  8
_0-0__
  6
DASHED3
 62
    3
 10
251.12988
 20
29.572033
 40
1.749971
 50
67.58078
 51
82.4212
  0
ARC
  8
_0-0__
  6
DASHED3
 62
    3
 10
251.12988
 20
29.572033
 40
1.749966
 50
337.58128
 51
22.41918
  0
ARC
  8
_0-0__
  6
DASHED3
 62
    3
 10
251.12988
 20
29.572033
 40
1.749982
 50
277.57885
 51
292.41987
  0
ARC
  8
_0-0__
  6
DASHED3
 62
    3
 10
251.82989
 20
36.072033
 40
1
 50
270.00002
 51
0
  0
LINE
  8
_0-0__
  6
DASHED3
 62
    3
 10
254.62988
 20
144.87203
 11
254.62988
 21
127.87203
  0
LINE
  8
_0-0__
  6
DASHED3
 62
    3
 10
254.62975
 20
127.87202
 11
251.62975
 21
128.27202
  0
LINE
  8
_0-0__
  6
DASHED3
 62
    3
 10
251.62988
 20
128.27202
 11
251.62988
 21
127.07203
  0
LINE
  8
_0-0__
  6
DASHED3
 62
    3
 10
240.12988
 20
128.87203
 11
240.12988
 21
126.87203
  0
LINE
  8
_0-0__
  6
DASHED3
 62
    3
 10
250.42978
 20
125.67203
 11
251.33446
 21
125.37842
  0
LINE
  8
_0-0__
  6
DASHED3
 62
    3
 10
252.07265
 20
126.39588
 11
251.99908
 21
126.81973
  0
LINE
  8
_0-0__
  6
DASHED3
 62
    3
 10
252.12988
 20
127.87203
 11
252.12978
 21
126.87203
  0
LINE
  8
_0-0__
  6
DASHED3
 62
    3
 10
252.12988
 20
127.87203
 11
254.62988
 21
127.87203
  0
LINE
  8
_0-0__
  6
DASHED3
 62
    3
 10
252.12988
 20
126.87203
 11
253.12988
 21
126.87203
  0
LINE
  8
_0-0__
  6
DASHED3
 62
    3
 10
253.12988
 20
126.87203
 11
253.12988
 21
124.87203
  0
LINE
  8
_0-0__
  6
DASHED3
 62
    3
 10
251.99907
 20
126.81972
 11
251.62976
 21
127.07203
  0
LINE
  8
_0-0__
  6
DASHED3
 62
    3
 10
251.33452
 20
125.37847
 11
252.07273
 21
126.39597
  0
ARC
  8
_0-0__
  6
DASHED3
 62
    3
 10
253.62988
 20
144.87203
 40
1
 50
359.99999
 51
90.00614
  0
LINE
  8
_0-0__
  6
DASHED3
 62
    3
 10
252.82989
 20
45.172033
 11
252.82989
 21
36.072033
  0
LINE
  8
_0-0__
  6
PHANTOM2
 62
    3
 10
194.62988
 20
35.872033
 11
194.62988
 21
10.872033
  0
LINE
  8
_0-0__
  6
PHANTOM2
 62
    3
 10
264.62988
 20
53.842303
 11
264.62988
 21
10.872033
  0
LINE
  8
_0-0__
  6
CONTINUOUS
 62
    3
 10
194.62988
 20
154.81829
 11
194.62988
 21
35.872033
  0
LINE
  8
_0-0__
  6
DASHED3
 62
    3
 10
220.62989
 20
154.81829
 11
220.62989
 21
146.17203
  0
LINE
  8
_0-0__
  6
DASHED3
 62
    3
 10
227.12988
 20
154.81829
 11
227.12988
 21
137.87203
  0
LINE
  8
_0-0__
  6
DASHED3
 62
    3
 10
232.12988
 20
154.81829
 11
232.12988
 21
137.87203
  0
LINE
  8
_0-0__
  6
DASHED3
 62
    3
 10
238.62989
 20
154.81829
 11
238.62989
 21
146.17203
  0
LINE
  8
_0-0__
  6
CONTINUOUS
 62
    3
 10
264.62988
 20
154.81829
 11
264.62988
 21
35.872033
  0
ARC
  8
_0-0__
  6
CONTINUOUS
 62
    3
 10
242.72988
 20
416.43458
 40
1
 50
89.99999
 51
180
  0
LINE
  8
_0-0__
  6
CONTINUOUS
 62
    3
 10
238.62988
 20
419.03458
 11
263.12988
 21
419.03458
  0
ARC
  8
_0-0__
  6
CONTINUOUS
 62
    3
 10
237.22988
 20
400.43459
 40
3
 50
270
 51
0.000003
  0
LINE
  8
_0-0__
  6
CONTINUOUS
 62
    3
 10
197.12988
 20
398.03459
 11
222.12988
 21
398.03459
  0
LINE
  8
_0-0__
  6
CONTINUOUS
 62
    3
 10
197.82989
 20
417.83458
 11
217.92986
 21
417.83458
  0
LINE
  8
_0-0__
  6
CONTINUOUS
 62
    3
 10
196.62988
 20
419.03458
 11
220.62988
 21
419.03458
  0
ARC
  8
_0-0__
  6
CONTINUOUS
 62
    3
 10
196.62988
 20
418.03458
 40
1
 50
89.99998
 51
180.00002
  0
LINE
  8
_0-0__
  6
CONTINUOUS
 62
    3
 10
196.82989
 20
416.83458
 11
196.82989
 21
402.40517
  0
ARC
  8
_0-0__
  6
CONTINUOUS
 62
    3
 10
197.82989
 20
416.83458
 40
1
 50
89.99998
 51
180.00002
  0
LINE
  8
_0-0__
  6
CONTINUOUS
 62
    3
 10
198.69767
 20
402.65431
 11
196.82988
 21
402.40521
  0
LINE
  8
_0-0__
  6
CONTINUOUS
 62
    3
 10
198.62987
 20
401.43456
 11
195.62988
 21
401.03456
  0
LINE
  8
_0-0__
  6
CONTINUOUS
 62
    3
 10
198.12988
 20
400.03459
 11
198.12988
 21
401.03459
  0
LINE
  8
_0-0__
  6
CONTINUOUS
 62
    3
 10
195.62988
 20
401.03459
 11
198.12988
 21
401.03459
  0
LINE
  8
_0-0__
  6
CONTINUOUS
 62
    3
 10
197.12988
 20
400.03459
 11
198.12988
 21
400.03459
  0
LINE
  8
_0-0__
  6
CONTINUOUS
 62
    3
 10
197.12988
 20
400.03459
 11
197.12988
 21
398.03459
  0
ARC
  8
_0-0__
  6
CONTINUOUS
 62
    3
 10
198.82989
 20
401.66298
 40
1
 50
0.000003
 51
97.59712
  0
LINE
  8
_0-0__
  6
CONTINUOUS
 62
    3
 10
198.92518
 20
398.54098
 11
199.82988
 21
398.83459
  0
LINE
  8
_0-0__
  6
CONTINUOUS
 62
    3
 10
198.26069
 20
399.98227
 11
198.18711
 21
399.55839
  0
LINE
  8
_0-0__
  6
CONTINUOUS
 62
    3
 10
198.2607
 20
399.98228
 11
198.62989
 21
400.23459
  0
LINE
  8
_0-0__
  6
CONTINUOUS
 62
    3
 10
198.9251
 20
398.54112
 11
198.18701
 21
399.55852
  0
LINE
  8
_0-0__
  6
CONTINUOUS
 62
    3
 10
199.82989
 20
401.66298
 11
199.82989
 21
398.83459
  0
LINE
  8
_0-0__
  6
CONTINUOUS
 62
    3
 10
198.62988
 20
401.43458
 11
198.62988
 21
400.23458
  0
LINE
  8
_0-0__
  6
CONTINUOUS
 62
    3
 10
238.62988
 20
419.03458
 11
238.62988
 21
417.03458
  0
LINE
  8
_0-0__
  6
CONTINUOUS
 62
    3
 10
220.62988
 20
419.03458
 11
220.62988
 21
417.03458
  0
LINE
  8
_0-0__
  6
CONTINUOUS
 62
    3
 10
229.42988
 20
399.03459
 11
229.82988
 21
399.03459
  0
LINE
  8
_0-0__
  6
CONTINUOUS
 62
    3
 10
223.62988
 20
399.03459
 11
235.62988
 21
399.03459
  0
LINE
  8
_0-0__
  6
CONTINUOUS
 62
    3
 10
223.62988
 20
399.03459
 11
235.62987
 21
411.03458
  0
LINE
  8
_0-0__
  6
CONTINUOUS
 62
    3
 10
235.62987
 20
411.03458
 11
223.62987
 21
411.03458
  0
LINE
  8
_0-0__
  6
CONTINUOUS
 62
    3
 10
227.12988
 20
411.03458
 11
232.12988
 21
411.03458
  0
LINE
  8
_0-0__
  6
CONTINUOUS
 62
    3
 10
220.12988
 20
415.03458
 11
220.12988
 21
399.83459
  0
LINE
  8
_0-0__
  6
CONTINUOUS
 62
    3
 10
218.92988
 20
416.83458
 11
218.92988
 21
398.83459
  0
LINE
  8
_0-0__
  6
CONTINUOUS
 62
    3
 10
223.62987
 20
411.03458
 11
223.62988
 21
399.03459
  0
LINE
  8
_0-0__
  6
CONTINUOUS
 62
    3
 10
223.12988
 20
416.53458
 11
222.62988
 21
417.03458
  0
ARC
  8
_0-0__
  6
CONTINUOUS
 62
    3
 10
217.92988
 20
416.83458
 40
1
 50
0.000003
 51
89.99998
  0
LINE
  8
_0-0__
  6
CONTINUOUS
 62
    3
 10
223.12988
 20
416.53458
 11
223.12988
 21
415.03458
  0
LINE
  8
_0-0__
  6
CONTINUOUS
 62
    3
 10
220.62988
 20
417.03458
 11
222.62988
 21
417.03458
  0
LINE
  8
_0-0__
  6
CONTINUOUS
 62
    3
 10
220.12988
 20
415.03458
 11
223.12988
 21
415.03458
  0
LINE
  8
_0-0__
  6
CONTINUOUS
 62
    3
 10
223.12988
 20
399.03459
 11
229.42988
 21
399.03459
  0
LINE
  8
_0-0__
  6
CONTINUOUS
 62
    3
 10
218.92988
 20
398.83459
 11
219.42988
 21
398.33459
  0
LINE
  8
_0-0__
  6
CONTINUOUS
 62
    3
 10
220.62988
 20
401.03459
 11
220.62988
 21
400.03459
  0
ARC
  8
_0-0__
  6
CONTINUOUS
 62
    3
 10
222.12988
 20
400.03459
 40
1
 50
0.000003
 51
90.00001
  0
LINE
  8
_0-0__
  6
CONTINUOUS
 62
    3
 10
222.12988
 20
400.03459
 11
222.12988
 21
398.03459
  0
LINE
  8
_0-0__
  6
CONTINUOUS
 62
    3
 10
220.62988
 20
400.03459
 11
222.12988
 21
400.03459
  0
LINE
  8
_0-0__
  6
CONTINUOUS
 62
    3
 10
220.62988
 20
401.03459
 11
222.12988
 21
401.03459
  0
LINE
  8
_0-0__
  6
CONTINUOUS
 62
    3
 10
223.12988
 20
400.03459
 11
223.12988
 21
399.03459
  0
ARC
  8
_0-0__
  6
CONTINUOUS
 62
    3
 10
221.37988
 20
399.08459
 40
0.75
 50
270.00002
 51
89.99998
  0
LINE
  8
_0-0__
  6
CONTINUOUS
 62
    3
 10
220.12988
 20
399.83459
 11
221.37988
 21
399.83459
  0
LINE
  8
_0-0__
  6
CONTINUOUS
 62
    3
 10
219.42988
 20
398.33459
 11
221.37988
 21
398.33459
  0
LINE
  8
_0-0__
  6
CONTINUOUS
 62
    3
 10
240.22988
 20
410.53458
 11
240.22988
 21
400.43459
  0
LINE
  8
_0-0__
  6
CONTINUOUS
 62
    3
 10
238.62988
 20
410.53458
 11
238.62988
 21
400.53459
  0
LINE
  8
_0-0__
  6
CONTINUOUS
 62
    3
 10
235.62987
 20
411.03458
 11
235.62988
 21
399.03459
  0
ARC
  8
_0-0__
  6
CONTINUOUS
 62
    3
 10
238.62988
 20
413.28458
 40
1.5
 50
270
 51
0.000003
  0
LINE
  8
_0-0__
  6
CONTINUOUS
 62
    3
 10
241.72988
 20
416.43458
 11
241.72988
 21
412.03458
  0
LINE
  8
_0-0__
  6
CONTINUOUS
 62
    3
 10
236.62988
 20
417.03458
 11
236.12988
 21
416.53458
  0
LINE
  8
_0-0__
  6
CONTINUOUS
 62
    3
 10
236.12988
 20
415.53458
 11
236.62988
 21
415.03458
  0
ARC
  8
_0-0__
  6
CONTINUOUS
 62
    3
 10
238.62988
 20
414.28458
 40
1.5
 50
0.000003
 51
90.00001
  0
LINE
  8
_0-0__
  6
CONTINUOUS
 62
    3
 10
240.12988
 20
414.28458
 11
240.12988
 21
413.28458
  0
LINE
  8
_0-0__
  6
CONTINUOUS
 62
    3
 10
237.12988
 20
415.78458
 11
238.62988
 21
415.78458
  0
LINE
  8
_0-0__
  6
CONTINUOUS
 62
    3
 10
237.12988
 20
415.78458
 11
237.12988
 21
415.03458
  0
LINE
  8
_0-0__
  6
CONTINUOUS
 62
    3
 10
236.62988
 20
415.03458
 11
237.12988
 21
415.03458
  0
LINE
  8
_0-0__
  6
CONTINUOUS
 62
    3
 10
236.12988
 20
416.53458
 11
236.12988
 21
415.53458
  0
LINE
  8
_0-0__
  6
CONTINUOUS
 62
    3
 10
236.62988
 20
417.03458
 11
238.62988
 21
417.03458
  0
LINE
  8
_0-0__
  6
CONTINUOUS
 62
    3
 10
236.62988
 20
412.53458
 11
236.12988
 21
412.03458
  0
LINE
  8
_0-0__
  6
CONTINUOUS
 62
    3
 10
236.12988
 20
411.03458
 11
236.62988
 21
410.53458
  0
ARC
  8
_0-0__
  6
CONTINUOUS
 62
    3
 10
240.22988
 20
412.03458
 40
1.5
 50
270
 51
0.000003
  0
LINE
  8
_0-0__
  6
CONTINUOUS
 62
    3
 10
236.62988
 20
410.53458
 11
238.62988
 21
410.53458
  0
LINE
  8
_0-0__
  6
CONTINUOUS
 62
    3
 10
236.12988
 20
412.03458
 11
236.12988
 21
411.03458
  0
LINE
  8
_0-0__
  6
CONTINUOUS
 62
    3
 10
236.62988
 20
412.53458
 11
237.12988
 21
412.53458
  0
LINE
  8
_0-0__
  6
CONTINUOUS
 62
    3
 10
237.12988
 20
412.53458
 11
237.12988
 21
411.78458
  0
LINE
  8
_0-0__
  6
CONTINUOUS
 62
    3
 10
237.12988
 20
411.78458
 11
238.62988
 21
411.78458
  0
LINE
  8
_0-0__
  6
CONTINUOUS
 62
    3
 10
229.82988
 20
399.03459
 11
237.12988
 21
399.03459
  0
ARC
  8
_0-0__
  6
CONTINUOUS
 62
    3
 10
237.12988
 20
400.53459
 40
1.5
 50
270
 51
0.000003
  0
LINE
  8
_0-0__
  6
CONTINUOUS
 62
    3
 10
211.67565
 20
396.43459
 11
223.12988
 21
396.43459
  0
LINE
  8
_0-0__
  6
CONTINUOUS
 62
    3
 10
198.22988
 20
396.43459
 11
204.5841
 21
396.43459
  0
ARC
  8
_0-0__
  6
CONTINUOUS
 62
    3
 10
198.22988
 20
395.43459
 40
1
 50
89.99999
 51
180
  0
LINE
  8
_0-0__
  6
CONTINUOUS
 62
    3
 10
204.5841
 20
396.43459
 11
211.67565
 21
396.43459
  0
LINE
  8
_0-0__
  6
CONTINUOUS
 62
    3
 10
223.72988
 20
397.03459
 11
233.12988
 21
397.03459
  0
LINE
  8
_0-0__
  6
CONTINUOUS
 62
    3
 10
223.12988
 20
396.43459
 11
223.72988
 21
397.03459
  0
LINE
  8
_0-0__
  6
CONTINUOUS
 62
    3
 10
233.52988
 20
397.43459
 11
237.22988
 21
397.43459
  0
LINE
  8
_0-0__
  6
CONTINUOUS
 62
    3
 10
233.12988
 20
397.03459
 11
233.52988
 21
397.43459
  0
LINE
  8
_0-0__
  6
CONTINUOUS
 62
    3
 10
263.62988
 20
418.53458
 11
263.12988
 21
419.03458
  0
LINE
  8
_0-0__
  6
CONTINUOUS
 62
    3
 10
254.67565
 20
417.43458
 11
261.02987
 21
417.43458
  0
LINE
  8
_0-0__
  6
CONTINUOUS
 62
    3
 10
247.5841
 20
417.43458
 11
254.67565
 21
417.43458
  0
LINE
  8
_0-0__
  6
CONTINUOUS
 62
    3
 10
242.72988
 20
417.43458
 11
247.5841
 21
417.43458
  0
ARC
  8
_0-0__
  6
CONTINUOUS
 62
    3
 10
261.02987
 20
416.43458
 40
1
 50
0.000003
 51
90.00001
  0
LINE
  8
_0-0__
  6
CONTINUOUS
 62
    3
 10
227.12988
 20
427.61475
 11
227.12988
 21
411.03458
  0
LINE
  8
_0-0__
  6
CONTINUOUS
 62
    3
 10
232.12988
 20
427.61475
 11
232.12988
 21
411.03458
  0
LINE
  8
_0-0__
  6
CONTINUOUS
 62
    3
 10
220.62988
 20
427.61475
 11
220.62988
 21
419.03458
  0
LINE
  8
_0-0__
  6
CONTINUOUS
 62
    3
 10
238.62988
 20
427.61475
 11
238.62988
 21
419.03458
  0
LINE
  8
_0-0__
  6
CONTINUOUS
 62
    3
 10
195.62988
 20
418.03458
 11
195.62988
 21
373.32761
  0
LINE
  8
_0-0__
  6
CONTINUOUS
 62
    3
 10
263.62988
 20
418.53458
 11
263.62988
 21
373.82694
  0
LINE
  8
_0-0__
  6
CONTINUOUS
 62
    3
 10
197.22987
 20
395.43459
 11
197.22987
 21
373.32761
  0
LINE
  8
_0-0__
  6
CONTINUOUS
 62
    3
 10
262.02988
 20
416.43458
 11
262.02988
 21
373.82694
  0
LINE
  8
_0-0__
  6
CONTINUOUS
 62
    3
 10
195.62988
 20
373.32761
 11
195.62988
 21
306.6793
  0
LINE
  8
_0-0__
  6
CONTINUOUS
 62
    3
 10
197.22987
 20
373.32761
 11
197.22987
 21
316.86397
  0
LINE
  8
_0-0__
  6
CONTINUOUS
 62
    3
 10
262.02988
 20
373.82694
 11
262.02988
 21
316.86397
  0
LINE
  8
_0-0__
  6
CONTINUOUS
 62
    3
 10
263.62988
 20
373.82694
 11
263.62988
 21
269.53459
  0
LINE
  8
_0-0__
  6
CONTINUOUS
 62
    3
 10
264.62988
 20
25.872033
 11
266.62988
 21
25.872033
  0
LINE
  8
_0-0__
  6
CONTINUOUS
 62
    3
 10
306.62988
 20
25.872033
 11
308.62988
 21
25.872033
  0
LINE
  8
_0-0__
  6
CONTINUOUS
 62
    3
 10
266.62988
 20
32.872033
 11
266.62988
 21
25.872033
  0
ARC
  8
_0-0__
  6
CONTINUOUS
 62
    3
 10
267.62988
 20
32.872033
 40
1
 50
90
 51
180
  0
LINE
  8
_0-0__
  6
CONTINUOUS
 62
    3
 10
277.62988
 20
33.872033
 11
267.62988
 21
33.872033
  0
ARC
  8
_0-0__
  6
CONTINUOUS
 62
    3
 10
277.62988
 20
32.872033
 40
1
 50
0
 51
90
  0
ARC
  8
_0-0__
  6
CONTINUOUS
 62
    3
 10
281.62988
 20
13.872033
 40
1
 50
180
 51
270
  0
LINE
  8
_0-0__
  6
CONTINUOUS
 62
    3
 10
297.62988
 20
12.872033
 11
281.62988
 21
12.872033
  0
ARC
  8
_0-0__
  6
CONTINUOUS
 62
    3
 10
297.62988
 20
13.872033
 40
1
 50
270
 51
0
  0
ARC
  8
_0-0__
  6
CONTINUOUS
 62
    3
 10
301.62988
 20
32.872033
 40
1
 50
90
 51
180
  0
LINE
  8
_0-0__
  6
CONTINUOUS
 62
    3
 10
305.62988
 20
33.872033
 11
301.62988
 21
33.872033
  0
LINE
  8
_0-0__
  6
CONTINUOUS
 62
    3
 10
306.62988
 20
32.872033
 11
306.62988
 21
25.872033
  0
ARC
  8
_0-0__
  6
CONTINUOUS
 62
    3
 10
305.62988
 20
32.872033
 40
1
 50
0
 51
90
  0
LINE
  8
_0-0__
  6
CONTINUOUS
 62
    3
 10
264.62988
 20
33.872033
 11
264.62988
 21
25.872033
  0
ARC
  8
_0-0__
  6
CONTINUOUS
 62
    3
 10
266.62988
 20
33.872033
 40
2
 50
90
 51
180
  0
LINE
  8
_0-0__
  6
CONTINUOUS
 62
    3
 10
278.62988
 20
35.872033
 11
266.62988
 21
35.872033
  0
LINE
  8
_0-0__
  6
CONTINUOUS
 62
    3
 10
280.62988
 20
33.872033
 11
280.62988
 21
13.872033
  0
ARC
  8
_0-0__
  6
CONTINUOUS
 62
    3
 10
278.62988
 20
33.872033
 40
2
 50
0
 51
90
  0
LINE
  8
_0-0__
  6
CONTINUOUS
 62
    3
 10
298.62988
 20
33.872033
 11
298.62988
 21
13.872033
  0
ARC
  8
_0-0__
  6
CONTINUOUS
 62
    3
 10
300.62988
 20
33.872033
 40
2
 50
90
 51
180
  0
LINE
  8
_0-0__
  6
CONTINUOUS
 62
    3
 10
306.62988
 20
35.872033
 11
300.62988
 21
35.872033
  0
LINE
  8
_0-0__
  6
CONTINUOUS
 62
    3
 10
308.62988
 20
33.872033
 11
308.62988
 21
25.872033
  0
ARC
  8
_0-0__
  6
CONTINUOUS
 62
    3
 10
306.62988
 20
33.872033
 40
2
 50
0
 51
90
  0
LINE
  8
_0-0__
  6
CONTINUOUS
 62
    3
 10
278.62988
 20
12.872033
 11
278.62988
 21
32.872033
  0
ARC
  8
_0-0__
  6
CONTINUOUS
 62
    3
 10
280.62988
 20
12.872033
 40
2
 50
180
 51
270
  0
LINE
  8
_0-0__
  6
CONTINUOUS
 62
    3
 10
300.62988
 20
12.872033
 11
300.62988
 21
32.872033
  0
LINE
  8
_0-0__
  6
CONTINUOUS
 62
    3
 10
298.62988
 20
10.872033
 11
280.62988
 21
10.872033
  0
ARC
  8
_0-0__
  6
CONTINUOUS
 62
    3
 10
298.62988
 20
12.872033
 40
2
 50
270
 51
0
  0
LINE
  8
_0-0__
  6
CENTER1
 62
    3
 10
289.62988
 20
284.30303
 11
289.62988
 21
244.17518
  0
LINE
  8
_0-0__
  6
CONTINUOUS
 62
    3
 10
285.62988
 20
281.03415
 11
285.62988
 21
257.70178
  0
LINE
  8
_0-0__
  6
CONTINUOUS
 62
    3
 10
293.62988
 20
281.03415
 11
293.62988
 21
257.70178
  0
LINE
  8
_0-0__
  6
DASHED1
 62
    3
 10
286.12988
 20
281.03415
 11
286.12988
 21
256.70178
  0
LINE
  8
_0-0__
  6
DASHED1
 62
    3
 10
293.12988
 20
281.03415
 11
293.12988
 21
256.70178
  0
LINE
  8
_0-0__
  6
CONTINUOUS
 62
    4
 10
411.55549
 20
279.0346
 11
394.03007
 21
279.0346
  0
LINE
  8
_0-0__
  6
CONTINUOUS
 62
    4
 10
431.95909
 20
269.0346
 11
394.03007
 21
269.0346
  0
LINE
  8
_0-0__
  6
CONTINUOUS
 62
    4
 10
434.79066
 20
419.0346
 11
369.62988
 21
419.0346
  0
LINE
  8
_0-0__
  6
CONTINUOUS
 62
    4
 10
399.23224
 20
35.872033
 11
397.67934
 21
30.076483
  0
LINE
  8
_0-0__
  6
CONTINUOUS
 62
    4
 10
399.23224
 20
35.872033
 11
399.23224
 21
45.872033
  0
LINE
  8
_0-0__
  6
CONTINUOUS
 62
    4
 10
399.23224
 20
45.872033
 11
399.23224
 21
55.872033
  0
LINE
  8
_0-0__
  6
CONTINUOUS
 62
    4
 10
399.23224
 20
35.872033
 11
400.78514
 21
30.076483
  0
LINE
  8
_0-0__
  6
CONTINUOUS
 62
    4
 10
399.23224
 20
35.872033
 11
399.23224
 21
25.872033
  0
LINE
  8
_0-0__
  6
CONTINUOUS
 62
    4
 10
399.23224
 20
45.872033
 11
400.78514
 21
51.667593
  0
LINE
  8
_0-0__
  6
CONTINUOUS
 62
    4
 10
399.23224
 20
45.872033
 11
400.78514
 21
51.667593
  0
LINE
  8
_0-0__
  6
CONTINUOUS
 62
    4
 10
399.23224
 20
45.872033
 11
397.67934
 21
51.667593
  0
LINE
  8
_0-0__
  6
CONTINUOUS
 62
    4
 10
399.23224
 20
45.872033
 11
397.67934
 21
51.667593
  0
LINE
  8
_0-0__
  6
CONTINUOUS
 62
    4
 10
399.23224
 20
45.872033
 11
399.23224
 21
145.99646
  0
LINE
  8
_0-0__
  6
CONTINUOUS
 62
    4
 10
399.23224
 20
145.07462
 11
399.23224
 21
279.0346
  0
LINE
  8
_0-0__
  6
CONTINUOUS
 62
    4
 10
399.23224
 20
279.0346
 11
397.67934
 21
273.23904
  0
LINE
  8
_0-0__
  6
CONTINUOUS
 62
    4
 10
399.23224
 20
279.0346
 11
400.78514
 21
273.23904
  0
LINE
  8
_0-0__
  6
CONTINUOUS
 62
    4
 10
416.92774
 20
35.872033
 11
416.92774
 21
269.0346
  0
LINE
  8
_0-0__
  6
CONTINUOUS
 62
    4
 10
416.92774
 20
269.0346
 11
418.48064
 21
274.83016
  0
LINE
  8
_0-0__
  6
CONTINUOUS
 62
    4
 10
416.92774
 20
35.872033
 11
415.37484
 21
41.667593
  0
LINE
  8
_0-0__
  6
CONTINUOUS
 62
    4
 10
416.92774
 20
269.0346
 11
418.48064
 21
263.23905
  0
LINE
  8
_0-0__
  6
CONTINUOUS
 62
    4
 10
416.92774
 20
269.0346
 11
415.37484
 21
263.23905
  0
LINE
  8
_0-0__
  6
CONTINUOUS
 62
    4
 10
416.92774
 20
35.872033
 11
418.48064
 21
41.667593
  0
LINE
  8
_0-0__
  6
CONTINUOUS
 62
    4
 10
416.92774
 20
269.0346
 11
415.37484
 21
274.83016
  0
LINE
  8
_0-0__
  6
CONTINUOUS
 62
    4
 10
416.92774
 20
269.0346
 11
416.92774
 21
419.0346
  0
LINE
  8
_0-0__
  6
CONTINUOUS
 62
    4
 10
416.92774
 20
419.0346
 11
418.48064
 21
413.23904
  0
LINE
  8
_0-0__
  6
CONTINUOUS
 62
    4
 10
416.92774
 20
419.0346
 11
415.37484
 21
413.23904
  0
TEXT
  8
_0-0__
 62
    7
 10
396.87911
 20
146.28972
 40
10
 41
1
 50
90
  1
DH
  0
TEXT
  8
_0-0__
 62
    7
 10
413.86852
 20
137.4804
 40
10
 41
1
 50
90
  1
H
  0
TEXT
  8
_0-0__
 62
    7
 10
415.127
 20
335.69014
 40
10
 41
1
 50
90
  1
150
  0
LINE
  8
_0-0__
  6
CONTINUOUS
 62
    4
 10
406.94691
 20
45.872033
 11
315.62988
 21
45.872033
  0
LINE
  8
_0-0__
  6
CONTINUOUS
 62
    4
 10
407.57615
 20
35.872033
 11
313.46861
 21
35.872033
  0
LINE
  8
_0-0__
  6
CONTINUOUS
 62
    4
 10
423.50994
 20
35.872033
 11
413.81503
 21
35.872033
  0
TEXT
  8
_0-0__
 62
    7
 10
379.87029
 20
268.18308
 40
10
 41
1
 50
90
  1
10
  0
TEXT
  8
_0-0__
 62
    7
 10
389.00588
 20
34.736052
 40
10
 41
1
 50
90
  1
10
  0
ENDSEC
  0
EOF
